Log in

One click and you are in

Login with Facebook Login with Google

Why sign up and log in

Guitar Tabs Explorer
Split Enz guitar tabs for My mistake

Guitar tabs with lyrics

My Mistake - Split Enz

Can't believe no on has done this. Note: Guitar parts that come from Piano will be hard to play.
[Intro 1]                          x2

 A chord diagramBb majorBb        GbM9   Gb7/Fb  A chord diagramEb MajorEb
---13-13----------------------------|
---15-15-----9------11-----4--------|
---15-15-----10-----9------3--------|
---15-15-----8------11-----5--------|
-13--------9--------9----6----------|
(6)-------(2)-----0-----(Low A chord diagramEb MajorEb)----|




[Intro 2/Main Riff]                x2

Piano/Bass
 A chord diagramC minorCm       A chord diagramCm7Cm7 A chord diagramCdimCdim
---3---3---3---2--------------------|
---4---4---4---4--------------------|
---5---5---3---5--------------------|
---5---5---5------------------------|
-3-------3--------------------------|
-----3-------3----------------------|
Guitar's
1 (Flanger effect) 2 (On beat "4 and")
------------------|-14--------------|
--3~~2~~----------|-12--------------|
--------3~~0~~----|-----------------|
------------------|-----------------|
------------------|-----------------|
------------------|-----------------|



[Verse 1] (Guitar 2^ still plays at start and end of Measure on beat "4 and")
                                                                    x2
 A chord diagramC minorCm           A chord diagramCdimCdim           Cm/Cb A chord diagramBb majorBb     A chord diagramEb MajorEb      A chord diagramBb majorBb      A chord diagramEb MajorEb  A chord diagramEb/DEb/D
---3---3---3---2---3---3---3---3---1---1---6---6---1---1---6---6---|
---4---4---4---4---4---4---4---4---3---3---8---8---3---3---8---8---|
---5---5---5---5---5---5---5---5---3---3---8---8---3---3---8---8---|
---5---5---5-------5---5---5---5---3---3---8---8---3---3---8---8---|
-3-------3-------3-------3---2---1-------6---6---1-------6---5-----|
-----3-------3-------3---------------1------(6)------1-------------|

A chord diagramC minorCm                     A chord diagramCdimCdim                     Cm/Cb
I went out to see if I could fall in love again,
A chord diagramBb majorBb             A chord diagramEb MajorEb
That was my mistake.
A chord diagramBb majorBb             A chord diagramEb MajorEb  A chord diagramEb/DEb/D
That was my mistake.
A chord diagramC minorCm                     A chord diagramCdimCdim                     Cm/Cb
I went out to see if I could raise a laugh again
A chord diagramBb majorBb             A chord diagramEb MajorEb
That was my mistake.
A chord diagramBb majorBb             A chord diagramEb MajorEb
That was my mistake.




[Chorus]
 A chord diagramBb majorBb  Fbdim  A chord diagramCm7Cm7    A chord diagramFF   Fbdim7  A chord diagramC7C7  Eb6/Bb  A chord diagramF/AF/A
-6-----------3-----1------6-----6-----8-----5-----------------------|
-6-----8-----4-----1------8-----5-----8-----6-----------------------|
-7-----9-----3-----2------6-----3-----8-----5-----------------------|
-8-----8-----5-----3------8-----5-----8-----3-----------------------|
-8-----7-----3-----3------7-----3-----6-----0-----------------------|
-6-----0-----------1------0-----------6-----------------------------|

     A chord diagramBb majorBb
When all I needed was a friend,
   Fbdim
To make me stop and think again,
   A chord diagramCm7Cm7
To Pull me up and pull me through,
A chord diagramFF                        Fbdim7  A chord diagramC7C7  Eb6/Bb  A chord diagramF/AF/A
Tally ho! Your health my dear.




[Verse 2]
A chord diagramC minorCm                     A chord diagramCdimCdim                            Cm/Cb
I went out to see if I could live for a couple of days.
A chord diagramBb majorBb             A chord diagramEb MajorEb
That was my mistake.
A chord diagramBb majorBb             A chord diagramEb MajorEb   A chord diagramEb/DEb/D
That was my mistake.
A chord diagramC minorCm                       A chord diagramCdimCdim                    Cm/Cb
One by one I counted all those happiest of days.
      A chord diagramBb majorBb             A chord diagramEb MajorEb
Yeah, that was my mistake.
     A chord diagramBb majorBb             A chord diagramEb MajorEb
Why, that was my mistake.




[Chorus 2]
       A chord diagramBb majorBb
What's gone is gone, sweet memories,
      Fbdim
Don't let them get the best of me,
A chord diagramCm7Cm7
No more lost in history,
A chord diagramFF
No more lost for love.
     A chord diagramBb majorBb
When all I needed was a friend,
   Fbdim
To make me stop and think again,
   A chord diagramCm7Cm7
To Pull me up and pull me through,
A chord diagramFF                        Fbdim7  A chord diagramC7C7  Eb6/Bb  A chord diagramF/AF/A
Tally ho! Your health my dear.



[Interlude] (Pretty similar...The A chord diagramBb majorBb chord does some different things but not too much to worry about)

  A chord diagramC minorCm                               A chord diagramBb majorBb     A chord diagramEb MajorEb      A chord diagramBb majorBb      A chord diagramEb MajorEb  A chord diagramEb/DEb/D
---3---3---3---3---3---3---3---3---1---1---6---6---1---1---6---6-----|
---4---4---4---4---4---4---4---4---3---3---8---8---3---3---8---8-----|
---5---5---5---5---5---5---5---5---3---3---8---8---3---3---8---8-----|
---5---5---5---5---5---5---5---5---3---3---8---8---3---3---8---8-----|
---3-------3-------3-------3-------1-------6---6---1-------6---5-----|
-------3-------3-------3-------3-------1------(6)------1-------------|

Trumpet/"Woah's"                                                             x2
-------3~~1h3-1h3-1h3--------3~~-1h3-1h3-1h3-3/6---1----3p1-3/6---1-----------|
-1-3-1-----------------1-3-1------------------------4--------------4-3~~\-----|
------------------------------------------------------------------------------|
------------------------------------------------------------------------------|
------------------------------------------------------------------------------|
------------------------------------------------------------------------------|




[Verse 3/Outro]
A chord diagramC minorCm                     A chord diagramCdimCdim                        Cm/Cb
I went out to see if I could fall in love again,
     A chord diagramBb majorBb             A chord diagramEb MajorEb
Now, that was my mistake.
     A chord diagramBb majorBb             A chord diagramEb MajorEb   A chord diagramEb/DEb/D
Why, that was my mistake.
A chord diagramC minorCm                       A chord diagramCdimCdim                      Cm/Cb
One by one I counted all those happiest of days
      A chord diagramBb majorBb             A chord diagramEb MajorEb
Yeah, that was my mistake.
A chord diagramG MajorG              A chord diagramF7F7
That was my mistake.

A chord diagramBb majorBb             A chord diagramEb MajorEb
That was my mistake.
A chord diagramG MajorG              A chord diagramF7F7
That was my mistake.

(Repeat that alot of times)

Then

 A chord diagramBb majorBb        GbM9   Gb7/Fb  A chord diagramEb MajorEb
---13-13----------------------------|
---15-15-----9------11-----4--------|
---15-15-----10-----9------3--------|
---15-15-----8------11-----5--------|
-13--------9--------9----6----------|
(6)-------(2)-----0-----(Low A chord diagramEb MajorEb)----|

  B5?                A chord diagramC majorC                A chord diagramC majorC  A chord diagramG MajorG  A chord diagramC majorC (Turns in to a A chord diagramC minorCm again thanks to that high A chord diagramEb MajorEb and the Trumpet)
--------------------------------------0---------(11)-(11)---|
---------------------5----------------1--3--1---------------|
---4-----------------5----------------0--0--0---------------|
---4--5-6p5h6~-5~3~--5-6-7p6h7~-5~3~--2--0--2\\-------------|
-3-2---------------3-3----------------3--2--3\\-------------|
-----------------------------------------3------------------|




Fuck what a song.
Pretty Happy with it...
Of course, the chords i've supplied are just what voicings they sounds like in the song
but go ahead and play different inversions if it's easier and sounds better to you

Almost there ...

Sign in to get your own page with links to favourite songs and more. You are just one click away...

Login with Facebook Login with Google