Log in

One click and you are in

Login with Facebook Login with Google

Why sign up and log in

Guitar Tabs Explorer
Split Enz tabs for I see red

Guitar tabs

I See Red - Split Enz


[Intro]
-------
--10---
--10---
--10---  (x64)
--8----
-------


[Chorus] Really weird rhythm
---------------------------------------------------------------------------
-----10-----10---10-----10-----10--------------------------10-----10---10--
-----10-----10---10-----10-----10---7-7-7-7-9-9-9-9--------10-----10---10--
-x-x-10-x-x-10-x-10-x-x-10-x-x-10-x-8-8-8-8-10101010-x-x-x-10-x-x-10-x-10-- x2
-x-x-8--x-x-8--x-8--x-x-8--x-x-8--x-8-8-8-8-10101010-x-x-x-8--x-x-8--x-8---
------------------------------------6-6-6-6-8-8-8-8------------------------

---------------------------------------------------------------------------
--6~~~~~~~~~~~~~~~~~~~~~~~~------------------------------------------------
--7~~~~~~~~~~~~~~~~~~~~~~~-------------------------------------------------
--7~~~~~~~~~~~~~~~~~~~~~~~-------------------------------------------------
--5~~~~~~~~~~~~~~~~~~~~~~~~------------------------------------------------
---------------------------1b-1b-1b-1b-1b-1b-1b-1b-1b-1b-1b-1b-1b-1b-1b-1b-

-----------------1~~~~~~~~-------------------------------------------------
-6~~~5~~~3~~~1~~~3~~~~~~~--------------------------------------------------
-7~~~5~~~3~~~2~~~2~~~~~~~~-------------------------------------------------
-7~~~5~~~3~~~2~~~0~~~~~~~~-------------------------------------------------
-5~~~3~~~1~~~0~~~----------------------------------------------------------
---------------------------------------------------------------------------



[Verse] (Mixture of Keyboard/Vocals)                  "what to  do --              without you"
-13--12--10--8--7--13~~~-13--12--10--8--7--13--7--13---13---12---17----------------13--12--3~~-
-----------------------------------------------------------------------------------------------
---------------------------------------------------------------------------2-4-5~~~------------
-12--10--9---7--5--12~~~-12--10--9---7--5--12--5--12-----------------2-3-5--------------------- x2
-----------------------------------------------------------------3-5---------------------------
-----------------------------------------------------------------------------------------------



[Post-Verse]
---------------------------------------------------------------------------
---------------------------------------------------------------------------
---------------------------------------------------------------------------
---------------------------------------------------------------------------
--^-------^-------^-------^-------^-----^-----^-----^-----^---^------------
--3-3-3-3-3-3-3-3-3-3-3-3-3-3-3-3-3-3-3-3-3-3-3-3-3-3-3-3-3-3-3-3----------




CHORUS

VERSE  - (slightly Different
POST-VERSE  - (slightly Different in rhythm)

CHORUS


Piano Riff (minor 2nd intervals on verse melody line mostly)
---------------------------------------------------------------------------
---------------------------------------------------------------------------
---------------------------------------------------------------------------
---------------------------------------------------------------------------
------------3-(x16)--------------------------------------------------------
--3-(x16)------------3 (post verse )---------------------------------------




[Solo]
----------------------------------------------------------------------------------------------------
-8br-8br-8br-8br\6~~ISEEREDISEEREDISEERED--6b-6b-6b-6b-6b-6b-6b-6-6-3-6-6-3-6-6-3-6-6-3-/8-/11~~~\\-
----------------------------------------------------------------------------------------------------
----------------------------------------------------------------------------------------------------
----------------------------------------------------------------------------------------------------
----------------------------------------------------------------------------------------------------

----------13-13-15b-15b-15b-15bb-b-b-b-r-r-13-13-13----13-13-15b-15b-15brp13~-15b-13------------------------
-13-15-15----------------------------------13-13-13-13-------------------------------15-13-15-13-13---------
----------------------------------------------------------------------------------------------------14br--12
------------------------------------------------------------------------------------------------------------
------------------------------------------------------------------------------------------------------------
------------------------------------------------------------------------------------------------------------

---------------------------------------------------------------------------
---------------------------------------------------------------------------
-14------------------------------------------------------------------------
----15v~~b~~~~~~~~~--ISEEREDISEEREDISEEREDISEEREDISEEREDISEERED------------
---------------------------------------------------------------------------
---------------------------------------------------------------------------
Something like that... it's a pretty messy solo... so you can just mess around
with those notes and it'll sound similar


----------------------------------------------------------------------------
--3-------------------------------------------------------------------------
--4-------------------------------------------------------------------------
--3-------------------------------------------------------------------------
--5----(xinfinity till song ends)-------------------------------------------
--3-------------------------------------------------------------------------

Other versions of I See Red

I see redChords

Almost there ...

Sign in to get your own page with links to favourite songs and more. You are just one click away...

Login with Facebook Login with Google