Log in

One click and you are in

Login with Facebook Login with Google

Why sign up and log in

Guitar Tabs Explorer
Spider tabs for Anti graviti

Guitar tabs

Album: Bintang 12
Title: Anti-Graviti
Tabbed by: GmasterMB

Tuning : Standard eBGDAE
riff 1
||-----------------|----------------------------||
||-----------------|----------------------------||
||-----------------|--4-4-4-2-2-2-6-6-6-2-2-2---||
||--4---4----------|--4-4-4-2-2-2-6-6-6-2-2-2---||
||--4---4---5-4----|--2-2-2-0-0-0-4-4-4-0-0-0---||
||--2---2-------5--|----------------------------||


riff 2
||-------------------------------------------------------||
||-------------------------------------------------------||
||--6-----------9-----------6-----------7-----6-----6-6--||
||--6-----7-----9-----4-----6-----7-----7-----6-----6-6--||
||--4-----7-----7-----4-----4-----7-----5-----4-----4-4--||
||--------5-----------2-----------5----------------------||
let ring all chords


riff 3
||-------------------------|--------------------------------------------|
||-------------------------|--------------------------------------------|
||-------6-6-6-7-7-7-6-6-6-|--4-4-4-2-2-2-------------4-4-4-2-2-2----6--|
||-4-4-4-6-6-6-7-7-7-6-6-6-|--4-4-4-2-2-2-6-6-6-4-4-4-4-4-4-2-2-2-6--6--|
||-4-4-4-4-4-4-5-5-5-4-4-4-|--2-2-2-0-0-0-6-6-6-4-4-4-2-2-2-0-00--6--4--|
||-2-2-2-------------------|--------------4-4-4-2-2-2-------------4-----|

interlude (let ring)
---------||
---------||
--7------||
--7------||
--5~~~~--||
---------


riff 4
||----------|---------------||
||----------|---------------||
||----------|--7-----9------||
||-7--6--4--|--7-----9------||
||-7--6--4--|--5~~~~-7~~~~--||
||-5--6--2--|---------------||


riff 1 guitar2
play this periodically with ska upstroke.
||--2--||
||--2--||
||--2--||
||--4--||
||-----||
||-----||

ⓘ Guitar tab for 'Anti Graviti' by, a female blues artist from Tennessee, United States. was born in 1957.

Almost there ...

Sign in to get your own page with links to favourite songs and more. You are just one click away...

Login with Facebook Login with Google