Log in

One click and you are in

Login with Facebook Login with Google

Why sign up and log in

Guitar Tabs Explorer
Specimen bass tabs for Kiss kiss bang bang

Bass tabs

Tuning: Drop D (D A D G)


Intro :33

Bass intro:
G|--9-7-9-------9-7-9--------9-7-9--------|
D|----------------------------------------|
A|----------------------------------------|
D|--------0-1--------0-1-4-8------0-1-2-3-|

Main bassline
G|----------------------------------------|
D|----------------------------------------|
A|-------------2h7------------------------|
D|-1-1h3-3h4-4----------------------------|


************************************

| h Hammer-on

************************************

Almost there ...

Sign in to get your own page with links to favourite songs and more. You are just one click away...

Login with Facebook Login with Google