Log in

One click and you are in

Login with Facebook Login with Google

Why sign up and log in

Guitar Tabs Explorer
Britney Spears bass tabs for Sometimes

Bass tabs

BRITNEY SPEARS - "Sometimes" - Bass Ta

Common Time(4/4
Standard Tuning(EADG
INTRO
    (x3
|-----------|---------
|*---------*|---------
|*-r-e-s-t-*|-r-r-8-8/
|-----------|---------
  1 2 3 4  1 2 3


VERSES 1 & 2
|-----------|-----------|-----------|-----------
|-----------|-----------|-----5---r-|-----------
|-1---5---r-|-----------|-3---------|---------3-
|-----------|-5---1---r-|-----------|-1---5-----
 1 2 & 3 4  1 2 & 3 4  1 2 & 3 4  1 2 & 3

|-----------|-----------|-----------|-----------
|-----------|-----------|-----5-----|-----------
|-1---5-----|-----------|-3---------|-----------
|-----------|-5---1-----|-----------|-1---5---r-
 1 2 & 3 4  1 2 & 3 4  1 2 & 3 4  1 2 & 3


PRE-CHORUS
|-----------|-----------|-----------|-----------
|-----5---r-|-----------|-----------|-----------
|-3---------|-----------|-1---1-0---|-----5-----
|-----------|-1---5---r-|-----------|-3-------1-
 1 2 & 3 4  1 2 & 3 4  1 2 & 3 4  1 2 & 3

|-----------|-----------|---------|-----------
|-----5---r-|-----------|-----.---|-3-----r---
|-3---------|-1---5---r-|-3---3-r-|---------8/
|-----------|-----------|---------|-----------
 1 2 & 3 4  1 2 & 3 4  1 2 3 4  1 2 & 3

1ST CHORUS
|-----------|-----------|-----------|-----------
|-----------|-----------|-----5---r-|-----------
|-1---1---r-|-0---------|-3---------|-----0---3-
|-----------|-----1-----|-----------|-1---------
 1 2 & 3 4  1 2 & 3 4  1 2 & 3 4  1 2 & 3

|-----------|-----------|-----------|---------
|---------3-|-----------|-----5-----|---------
|-1---1-----|-0---------|-3-------3-|---------
|-----------|-----1-----|-----------|-1-----r-
 1 2 & 3 4  1 2 & 3 4  1 2 & 3 4  1 2 3


2ND CHORUS
|-----------|-----------|-----------|-----------
|-----------|-----------|-----5---r-|-----------
|-1---1---r-|-0---------|-3---------|-----0---3-
|-----------|-----1-----|-----------|-1---------
 1 2 & 3 4  1 2 & 3 4  1 2 & 3 4  1 2 & 3

|-----------|-----------|-----------|---------
|---------3-|-----------|-----5-----|---------
|-1---1-----|-0---------|-3-------3-|---------
|-----------|-----1-----|-----------|-1-----r-
 1 2 & 3 4  1 2 & 3 4  1 2 & 3 4  1 2 3

|-----------3-|-2-----------|-----------|-----------
|---------3---|-----3---3-2-|-----5---r-|-----------
|-1---1-------|-------------|-3---------|-----------
|-------------|-------------|-----------|-1---1---r-
 1 2 & 3 4 &  1 2 & 3 4 &  1 2 & 3 4  1 2 & 3


INTERLUDE
|-----------|-------------|-----------|-------------
|-.-------.-|-------------|-----------|-------------
|-6-r-r-r-0-|-----------.-|-r-r-r-r-3-|---3/5-3-----
|-----------|-r-r-1-5---3-|-----------|-------------
 1 2 3 4 &  1 2 3 & 4 &  1 2 3 4 &  1 & 2 & 3

|-----------|-----------|---------2h|-3p2---------|---------
|-----5-----|-----------|-----------|-----------3h|-5-------
|-3---------|-----------|-r-e-s-t---|-------------|---------
|-----------|-1---1---r-|-----------|-------------|---------
 1 2 & 3 4  1 2 & 3 4  1 2 3 4 &  1 & 2 3 4 &  1 2 3 4

|-----------|---------
|-------5-r-|---------
|-3---------|-r-e-s-t-
|-----------|---------
 1 2 & 3 4  1 2 3


END
|------------|-----------|-----------|-----------
|*-----------|-----------|-----6---r-|-----------
|*-2---2---r-|-1---------|-4---------|-----1---4-
|------------|-----2-----|-----------|-2---------
  1 2 & 3 4  1 2 & 3 4  1 2 & 3 4  1 2 & 3

|-----------|-----------|-----------|----------
|---------4-|-----------|-----6-----|---------*
|-2---2-----|-1---------|-4-------4-|---------*
|-----------|-----2-----|-----------|-2-----r--
 1 2 & 3 4  1 2 & 3 4  1 2 & 3 4  1 2 3


By: Johari Taylo
E-mail: viking@powerup.com.au, or s369700@student.uq.edu.a
More Bass Tabs: http://www.powerup.com.au/~viking/basstab.ht

Almost there ...

Sign in to get your own page with links to favourite songs and more. You are just one click away...

Login with Facebook Login with Google