Log in

One click and you are in

Login with Facebook Login with Google

Why sign up and log in

Guitar Tabs Explorer
Jordin Sparks bass tabs for One step at a time

Bass tabs

----------------------------------------------------------------------------
		   One Step At A Time - Jordin Sparks
----------------------------------------------------------------------------
 Tabbed by:The Disguised
 Tuning:Half-Step Down

 The (P) stands for a pop not a pull off.

 No bass in any of the verses of the whole song.
Chorus: 0:50
F#|---9(P)--------------9(P)----------------9(P)---------------------------|
C#|--------------------------------------------------------5(P)---7(P)-----|
G#|7x---75-5-22-0--5-7x---75-5-22-0-----057x---75-5-22-0-------------------|
Eb|---------------------------------3-5------------------3x-3-3-5x-5-5\----|


Bridge: 2:14
F#|--5(P)-----------5(P)-----------7(P)------------------------------------|
C#|------3-3-33-3-------3-3-33-3-------5-5-55-5--7(P)--5-7-9---------------|
G#|3x-33----------3x-33----------5x-55-------------------------------------|
Eb|--------------------------------------------5x-55-5---------------------|

Song order:Verse x1 (no bass): 0:13
      Chorus x1: 0:50
      Verse 2 x1 (no bass): 1:08
      Chorus x1: 1:56
      Bridge x1: 2:14
      Chorus x2: 2:42

| P pop
| / slide up
| \ slide down
| h hammer-on
| p pull off
| ~ vibrato
| + harmonic
| x Mute note

Almost there ...

Sign in to get your own page with links to favourite songs and more. You are just one click away...

Login with Facebook Login with Google