Log in

One click and you are in

Login with Facebook Login with Google

Why sign up and log in

Guitar Tabs Explorer
Spacey Jane bass tabs for Head cold

Bass tabs

Tuning: Standard (E A D G)


Intro:

G|-------------------------------------------------------------------------|
D|-------------------------------------------------------------------------|
A|-----8-----------8------10-8--7--6--------------------------7--8---------|
E|--8-----------8--------------------------3-5--8-----3-5--8---------------|

Verse 1:

G|---------------------------------------------------------------------------|
D|---------------------------------------------------------------------------|
A|---8-8-8-8-8-8-8-8-8-8-8------8---8-8-8-8-8-8-8-8-8-8-10--8--7--8----------|
E|---------------------------7-----------------------------------------------|

G|---------------------------------------------------------------------------|
D|---------------------------------------------------------------------------|
A|-------------------------------------------------------------------7-------|
E|---8---8-8-8-8-8-8-8-8-8-8--3--5--8---8-8-8-8-8-8-8-8-8-8-3--5--8----------|  x2

G|---------------------------------------------------------------------------|
D|---------------------------------------------------------------------------|
A|--------------------------------3-------3---3-------3-3-3-3-3-3------------|
E|---1--------------------------------------1--------------------------------|


Chorus:

G|---------------------------------------------------------------------------|
D|---------------------------------------------------------------------------|
A|-----------------3----3---3-3---5----5---5-5-------------------------------|
E|--1----1---1-1---------------------------------5----5---5-5----------------|  x2

G|---------------------------------------------------------------------------|
D|---------------------------------------------------------------------------|
A|---------------------------------------------------------------------------|
E|--1----1-1-1-1-1-1-1-1-1-1-1-1---------------------------------------------|

G|---------------------------------------------------------------------------|
D|---------------------------------------------------------------------------|
A|---8-8-8-8-8-8-8-8-8-8-8------8---8-8-8-8-8-8-8-8-8-8-10--8--7--8----------|
E|---------------------------7-----------------------------------------------|


Verse 2:

G|---------------------------------------------------------------------------|
D|---------------------------------------------------------------------------|
A|---8-8-8-8-8-8-8-8-8-8-8------8---8-8-8-8-8-8-8-8-8-8-10--8--7--8----------|
E|---------------------------7-----------------------------------------------|

G|---------------------------------------------------------------------------|
D|---------------------------------------------------------------------------|
A|-------------------------------------------------------------------7-------|
E|---8---8-8-8-8-8-8-8-8-8-8--3--5--8---8-8-8-8-8-8-8-8-8-8-3-5--8----------|  x2

G|---------------------------------------------------------------------------|
D|---------------------------------------------------------------------------|
A|--8------------------------------------------------------------------------|
E|---------------------------------8---8-8-8-8-8-8-8-8-8-8-8-----------------|


Chorus:

G|---------------------------------------------------------------------------|
D|---------------------------------------------------------------------------|
A|-----------------3----3---3-3---5----5---5-5-------------------------------|
E|--1----1---1-1---------------------------------5----5---5-5----------------|  x2

G|---------------------------------------------------------------------------|
D|---------------------------------------------------------------------------|
A|---------------------------------------------------------------------------|
E|--1----1-1-1-1-1-1-1-1-1-1-1-1---------------------------------------------|


Bridge:

G|-------------------------------------------------------------------------|
D|-----------------------------------2-2-----------------------------------|
A|-------------5-3--2--3------------------3---------------3-2--0--2--------|
E|--3---3--3--------------3---3--3-----------1---1---1----------------1----|

(BREAK)


Chorus:

G|---------------------------------------------------------------------------|
D|---------------------------------------------------------------------------|
A|-----------------3----3---3-3---5----5---5-5-------------------------------|
E|--1----1---1-1---------------------------------5----5---5-5----------------|  x4

G|---------------------------------------------------------------------------|
D|---------------------------------------------------------------------------|
A|--8------------------------------------------------------------------------|
E|---------------------------------------------------------------------------|

Almost there ...

Sign in to get your own page with links to favourite songs and more. You are just one click away...

Login with Facebook Login with Google