Log in

One click and you are in

Login with Facebook Login with Google

Why sign up and log in

Guitar Tabs Explorer
The Sounds bass tabs for My lover

Bass tabs

The Sounds - My Lover
---------------------------------------------------------------------------

Tabbed by Vanessa Fournier
email : rock_the_nation_666@hotmail.com
Intro :

--------           --------      --------|
--------           -6------      -4------|
-7------ Let ring 4 measures -------- Let ring 2 --------| Let ring 2
--------           --------      --------|

----------------|-----------------|-------------------|-----------------|
----------------|-----------------|-------------------|-----------------|
----------------|-----------------|-------------------|-----------------|
4-4-4-4-4-4-4-4-|-4-4-4-4-4-4-4-4-|-4-4-4-4-4-4-4-4-4-|-4-4-4-4-4-4-4-4-|

----------------|-----------------|-------------------|-----------------|
4-4-4-4-4-4-4-4-|-4-4-4-4-4-4-4-4-|-4-4-4-4-4-4-4-4-4-|-4-4-4-4-4-4-4-4-|
----------------|-----------------|-------------------|-----------------|
----------------|-----------------|-------------------|-----------------|


Verse :

----------------|-----------------|-------------------|-----------------|
----------------|-----------------|-------------------|-----------------|
----------------|-----------------|-------------------|-----------------|
4-4-4-4-4-4-4-4-|-4-4-4-4-4-4-4-4-|-4-4-4-4-4-4-4-4-4-|-4-4-4-4-4-4-4-4-|

----------------|-----------------|-------------------|-----------------|
4-4-4-4-4-4-4-4-|-4-4-4-4-4-4-4-4-|-4-4-4-4-4-4-4-4-4-|-4-4-4-4-4-4-4-4-|
----------------|-----------------|-------------------|-----------------|
----------------|-----------------|-------------------|-----------------|

-----------------|-----------------|-----------------|-----------------|
-6-r-6-r-6-r-6---|-6-r-6-r-6-r-6---|-6-r-6-r-6-r-6---|-6-r-6-r-6-r-6---|
-----------------|-----------------|-----------------|-----------------|
---------------4-|---------------4-|---------------4-|---------------4-|

----------------|-----------------|-------------------|-----------------|
4-4-4-4-4-4-4-4-|-4-4-4-4-4-4-4-4-|-4-4-4-4-4-4-4-4-4-|-----------------|
----------------|-----------------|-------------------|---------2-2-4-4-|
----------------|-----------------|-------------------|-2-2-4-4---------|

Chorus :

-----------------|-----------------|-----------------|-----------------|
-2-2-2-2-2-2-2-2-|-2-2-2-2-2-2-2-2-|-2-2-2-2-2-2-2-2-|-2-2-2-2-2-2-2-2-|
-----------------|-----------------|-----------------|-----------------|
-----------------|-----------------|-----------------|-----------------|

-----------------|-----------------|-----------------|-----------------|
-6-6-6-6-6-6-6-6-|-6-6-6-6-6-6-6-6-|-4-4-4-4-4-4-4-4-|-4-4-4-4-4-4-4-4-|
-----------------|-----------------|-----------------|-----------------|
-----------------|-----------------|-----------------|-----------------|

Replay Verse

Replay Chorus

-----------------|-----------------|-----------------|-----------------|
-----------------|-----------------|-----------------|-----------------|
-2-r-2-r-2-r-2-r-|-2-r-2-r-2-r-2-r-|-2-r-2-r-2-r-2-r-|-2-r-2-r-2-r-2-r-|
-----------------|-----------------|-----------------|-----------------|

-----------------|-----------------|-----------------|-----------------|
-6-6-6-6-6-6-6-6-|-6-6-6-6-6-6-6-6-|-4-4-4-4-4-4-4-4-|-4-4-4-4-4-4-4-4-|
-----------------|-----------------|-----------------|-----------------|
-----------------|-----------------|-----------------|-----------------|

--------           ----------|
--------           ----------|
-------- Let ring 2 measures ----------|
-4------           -4--------|

--------           ----------|
--------           ----------|
-------- Let ring 2 measures ----------|
-4------           -4--------|

-------- ---------- ---------- --------- ---------|
-------- ---------- ---------- --------- ---------|
-7------ -7-------- -7\2------ -2------- -2---6---|
-------- ---------- ---------- --------- ---------|

I'm not sure for that part..

-----------------|-----------------|-----------------|-----------------|
--------------2h4|--------------2h4|---------------4-|-----------------|
-----------------|-----------------|-2-r-2-r-2-r-2---|-2-r-2-r-2-------| x4
-4-r-4-r-4-r-4---|-4-r-4-r-4-r-4---|-----------------|------------2h4-2|

-----------------|-----------------|-----------------|-----------------|
-----------------|-----------------|-----------------|-----------------|
-2-r-2-r-2-r-2-r-|-2-r-2-r-2-r-2-r-|-2-r-2-r-2-r-2-r-|-2-r-2-r-2-r-2-r-|
-----------------|-----------------|-----------------|-----------------|


Chorus x3

The End !

| r Rest

Almost there ...

Sign in to get your own page with links to favourite songs and more. You are just one click away...

Login with Facebook Login with Google