Log in

One click and you are in

Login with Facebook Login with Google

Why sign up and log in

Guitar Tabs Explorer
Sound Tribe Sector 9 tabs for Breathe in

Guitar tabs

Breathe In - STS9


		PART 1						PART  2

     						      A chord diagramA augmentedA    A chord diagramC majorC	     A chord diagramBB         A chord diagramC majorC   A chord diagramBB      A chord diagramA augmentedA  A chord diagramG+G  A chord diagramA augmentedA
|---0-----0--------0-----0----------|----------------------------------------------------|
|---0-----0--------0-----0---10-----|---10---12--12-12----13--13---12--12---12/10/8--10--|
|---0-----0--------0-----0------9---|----------------------------------------------------|
|---7-----9--------7-----9----------|---7----9---9--9-----10--10----9--10---10/7-/5--7---|
|-----------------------------------|----------------------------------------------------|
|-----------------------------------|----------------------------------------------------|
          BASS PART
|------------------------------|
|------------------------------|
|------------------------------|
|------------------------------|
|-----3------------------------|
|-0-------3--5---5/7---5---3/2-|


           PART 3			          PART 3 Variation
|-----------------------------|--------------------------------|
|-----------------------------|--------------------------------|
|-----16---------14-----------|--------16--------16------------|
|--14------16-17------17\16/17 |-\14-------16-17------17/16\17--|
|-----------------------------|-----14-------------------------|
|-----------------------------|--------------------------------|


		   PART 3a
|-----------------------------------|
|-----------------------------------|
|-----------------------------------|
|-------10------7--9--7-------------|
|---7------10-----------10/9--7-----|
|-----------------------------------|

BACK TO PART 3 - THEN BACK TO PART 2

   A chord diagramFF         A chord diagramC majorC           A chord diagramG+G
|---3--33-----3--33-----3-------------|
|---1--11-----1--11-----0--0-0h1-1----|
|---2--22-----0--00-----0--0-0--------|
|-3-3--33-----2--22-----0--0-0--------|
|-----------3-3-----------------------|
|-----------------------3-3-----------|


  ending lick
|-------------15----15----15----15-------15---|
|----------------13----13----13----12h13------|
|---------------------------------------------|
|---------------------------------------------|
|---------------------------------------------|
|---------------------------------------------|



Tabbed by Chris Barbuto

Almost there ...

Sign in to get your own page with links to favourite songs and more. You are just one click away...

Login with Facebook Login with Google