Log in

One click and you are in

Login with Facebook Login with Google

Why sign up and log in

Guitar Tabs Explorer
The Sound City Players bass tabs for Heartland

Bass tabs

Riff:
 1 + 2 + 3 + 4 + 5 + 6 + 1 + 2 + 3 + 4 + 5 + 6 +
G|------------------------|------------------------|
D|------------------------|------------------------|
A|3---3-5---5-5---5-5---5-|------------------------|(x2)
E|------------------------|3---3-5---5-5---5-5---5-|

 1 + 2 + 3 + 4 + 5 + 6 + 1 + 2 + 3 + 4 + 5 + 6 +
G|------------------------|------------------------|
D|------------------------|------------------------|
A|8-8-7-5---5-5---5-5---5\|------------------------|(x2)
E|------------------------|3---3-5---5-5---5-5---5-|
Verse:
 1 + 2 + 3 + 4 + 5 + 6 + 1 + 2 + 3 + 4 + 5 + 6 +
G|------------------------|------------------------|
D|------------------------|------------------------|
A|3---3-5---5-5---5-5---5-|------------------------|(x4)
E|------------------------|3---3-5---5-5---5-5---5-|


Pre-Chorus:
 1 + 2 + 3 + 4 + 5 + 6 +
G|------------------------|
D|------------------------|
A|3---3-5---5-5---5-5---5-|(x2)
E|------------------------|

 1 + 2 + 3 + 4 + 5 + 6 +
G|------------------------|
D|------------------------|
A|3---3-------------------|(x2)
E|------3---3-3---3-3---3-|

Chorus:
 1 + 2 + 3 + 4 + 5 + 6 + 1 + 2 + 3 + 4 + 5 + 6 + 1 + 2 + 3 + 4 + 5 + 6 +
G|------------------------|------------------------|------------------------|
D|------------------------|------------------------|------------------------|
A|------------------3---3-|------------------7---7-|5---5-5---5-5---5-3---3-|
E|5---5-5---5-5---5-------|0---0-0---0-0---0-------|------------------------|

 1 + 2 + 3 + 4 + 5 + 6 +
G|------------------------|
D|------------------------|
A|------------------------|
E|5---5-5---5-5---5-5---5-|


Riff:
 1 + 2 + 3 + 4 + 5 + 6 + 1 + 2 + 3 + 4 + 5 + 6 +
G|------------------------|------------------------|
D|------------------------|------------------------|
A|3---3-5---5-5---5-5---5-|------------------------|(x2)
E|------------------------|3---3-5---5-5---5-5---5-|

 1 + 2 + 3 + 4 + 5 + 6 + 1 + 2 + 3 + 4 + 5 + 6 +
G|------------------------|------------------------|
D|------------------------|------------------------|
A|8-8-7-5---5-5---5-5---5\|------------------------|(x2)
E|------------------------|3---3-5---5-5---5-5---5-|


Verse:
 1 + 2 + 3 + 4 + 5 + 6 + 1 + 2 + 3 + 4 + 5 + 6 +
G|------------------------|------------------------|
D|------------------------|------------------------|
A|3---3-5---5-5---5-5---5-|------------------------|(x4)
E|------------------------|3---3-5---5-5---5-5---5-|


Pre-Chorus:
 1 + 2 + 3 + 4 + 5 + 6 +
G|------------------------|
D|------------------------|
A|3---3-5---5-5---5-5---5-|(x2)
E|------------------------|

 1 + 2 + 3 + 4 + 5 + 6 +
G|------------------------|
D|------------------------|
A|3---3-------------------|(x2)
E|------3---3-3---3-3---3-|


Chorus:
 1 + 2 + 3 + 4 + 5 + 6 + 1 + 2 + 3 + 4 + 5 + 6 + 1 + 2 + 3 + 4 + 5 + 6 +
G|------------------------|------------------------|------------------------|
D|------------------------|------------------------|------------------------|
A|------------------3---3-|------------------7---7-|5---5-5---5-5---5-3---3-|
E|5---5-5---5-5---5-------|0---0-0---0-0---0-------|------------------------|

 1 + 2 + 3 + 4 + 5 + 6 +
G|------------------------|
D|------------------------|
A|------------------------|
E|5---5-5---5-5---5-5---5-|


Solo:
 1 + 2 + 3 + 4 + 5 + 6 + 1 + 2 + 3 + 4 + 5 + 6 +
G|------------------------|------------------------|
D|------------------------|------------------------|
A|3---3-5---5-5---5-5---5-|------------------------|(x4)
E|------------------------|3---3-5---5-5---5-5---5-|


Pre-Chorus:
 1 + 2 + 3 + 4 + 5 + 6 +
G|------------------------|
D|------------------------|
A|3---3-5---5-5---5-5---5-|(x2)
E|------------------------|

 1 + 2 + 3 + 4 + 5 + 6 +
G|------------------------|
D|------------------------|
A|3---3-------------------|(x2)
E|------3---3-3---3-3---3-|

Extended chorus: (play 5 times)
 1 + 2 + 3 + 4 + 5 + 6 + 1 + 2 + 3 + 4 + 5 + 6 + 1 + 2 + 3 + 4 + 5 + 6 +
G|------------------------|------------------------|------------------------|
D|------------------------|------------------------|------------------------|
A|------------------3---3-|------------------7---7-|5---5-5---5-5---5-3---3-|
E|5---5-5---5-5---5-------|0---0-0---0-0---0-------|------------------------|

 1 + 2 + 3 + 4 + 5 + 6 +
G|------------------------|
D|------------------------|
A|------------------3---3-|
E|5---5-5---5-5---5-------|


Outro:
 1 + 2 + 3 + 4 + 5 + 6 +
G|------------------------|
D|------------------------|
A|------------------------|
E|5-----------------------|

Almost there ...

Sign in to get your own page with links to favourite songs and more. You are just one click away...

Login with Facebook Login with Google