Log in

One click and you are in

Login with Facebook Login with Google

Why sign up and log in

Guitar Tabs Explorer
Sonic Youth tabs for Sugar kane

Guitar tabs

Title: Sugar Kane
Album: Dirty


Tuning: EGDGBE (low to high)

Tabbed By: Indie Nation

w - whammy bar

A chord diagramE MajorE |----------------------------|----------------------------|
A chord diagramBB |----------------------------|----------------------------|
A chord diagramG+G |--15-15-15-15-15-15-15-15---|--14-14-14-14-14-14-14-14---|
A chord diagramD MajorD |----------------------------|----------------------------|
A chord diagramG+G |----------------------------|----------------------------|
A chord diagramE MajorE |----------------------------|----------------------------|

----------------------------|----------------------------|
----------------------------|----------------------------|
--12-12-12-12---------------|----------------------------|
--------------15-15-15-12---|--12-12-12-12-12-12-12-12---|
----------------------------|----------------------------|
----------------------------|----------------------------|

----------------------------|----------------------------|
----------------------------|----------------------------|
--15-15-15-15-15-15-15-15---|--14-14-14-14-14-14-14-14---|
----------------------------|----------------------------|
----------------------------|----------------------------|
----------------------------|----------------------------|

----------------------------|----------------------------|
----------------------------|----------------------------|
--12-12-12-12---------------|----------------------------|
--------------15-15-15-12---|--12-12-12-12-12-12-12-12---|
----------------------------|----------------------------|
----------------------------|----------------------------|

----------------------------|----------------------------|
----------------------------|----------------------------|
--0-----0-------------------|----------------------------|
--0-----0-------------------|----------------------------|
--0-----0-----------0--0----|--0-----0--0--0--0--0--0----|
----------------------------|----------------------------|

----------------------------|----------------------------|
----------------------------|----------------------------|
--0-----0-------------------|----------------------------|
--0-----0-------------------|----------------------------|
--0-----0-----------0--0----|--0-----0--0--0--0--0--0----|
----------------------------|----------------------------|

----------------------------|----------------------------|
----------------------------|-----6--6--6--5--5--5--4----|
--0-----0-------------------|----------------------------|
--0-----0-------------------|----------------------------|
--0-----0-----------0--0----|----------------------------|
----------------------------|----------------------------|

----------------------------|----------------------------|
--4--3--3--3--4--4--4--5----|--5--6--6--6--5--5--4b------|
----------------------------|----------------------------|
----------------------------|----------------------------|
----------------------------|----------------------------|
----------------------------|----------------------------|

-------------------------------|-------------------------|
-------------------------------|-------------------------|
--0-----0--0--0--7-----5-------|-----------5-------------|
--0-----0--0--0--7-----5-------|--5--6--5-----5--6--5----|
--0-----0--0--0--7-----5-------|-------------------------|
-------------------------------|-------------------------|

-------------------------------|-------------------------|
-------------------------------|-------------------------|
--0-----0--0--0--7-----5-------|-------------------------|
--0-----0--0--0--7-----5-------|--5--6--5--6--5--6--5----|
--0-----0--0--0--7-----5-------|-------------------------|
-------------------------------|-------------------------|

-------------------------------|-------------------------|
-------------------------------|-------------------------|
--0-----0--0--0--7-----5-------|-----------5-------------|
--0-----0--0--0--7-----5-------|--5--6--5-----5--6--5----|
--0-----0--0--0--7-----5-------|-------------------------|
-------------------------------|-------------------------|

-------------------------------|-------------------------|
-------------------------------|-------------------------|
--0-----0--0--0--7-----5-------|-------------------------|
--0-----0--0--0--7-----5-------|--5--6--5--6--5--6--5----|
--0-----0--0--0--7-----5-------|-------------------------|
-------------------------------|-------------------------|

-------------------------------|-------------------------|
-------------------------------|-------------------------|
--0-----0--0--0--7-----5-------|-----------5-------------|
--0-----0--0--0--7-----5-------|--5--6--5-----5--6--5----|
--0-----0--0--0--7-----5-------|-------------------------|
-------------------------------|-------------------------|

-------------------------------|-------------------------|
-------------------------------|-------------------------|
--0-----0--0--0--7-----5-------|-------------------------|
--0-----0--0--0--7-----5-------|--5--6--5--6--5--6--5----|
--0-----0--0--0--7-----5-------|-------------------------|
-------------------------------|-------------------------|

-------------------------------|-------------------------|
-------------------------------|-------------------------|
--0-----0--0--0--7-----5-------|-----------5-------------|
--0-----0--0--0--7-----5-------|--5--6--5-----5--6--5----|
--0-----0--0--0--7-----5-------|-------------------------|
-------------------------------|-------------------------|

-------------------------------|-------------------------|
-------------------------------|-------------------------|
--0-----0--0--0--7-----5-------|-------------------------|
--0-----0--0--0--7-----5-------|--5--6--5--6--5--6--5----|
--0-----0--0--0--7-----5-------|-------------------------|
-------------------------------|-------------------------|

-------------------------------|-------------------------|
-------------------------------|-------------------------|
--0-----0--0--0--7-----5-------|-----------5-------------|
--0-----0--0--0--7-----5-------|--5--6--5-----5--6--5----|
--0-----0--0--0--7-----5-------|-------------------------|
-------------------------------|-------------------------|

-------------------------------|-------------------------|
-------------------------------|-------------------------|
--0-----0--0--0--7-----5-------|-------------------------|
--0-----0--0--0--7-----5-------|--5--6--5--6--5--6--5----|
--0-----0--0--0--7-----5-------|-------------------------|
-------------------------------|-------------------------|

-------------------------------|-------------------------|
-------------------------------|-------------------------|
--0-----0--0--0--7-----5-------|-----------5-------------|
--0-----0--0--0--7-----5-------|--5--6--5-----5--6--5----|
--0-----0--0--0--7-----5-------|-------------------------|
-------------------------------|-------------------------|

-------------------------------|-------------------------|
-------------------------------|-------------------------|
--0-----0--0--0--7-----5-------|-------------------------|
--0-----0--0--0--7-----5-------|--5--6--5--6--5--6--5----|
--0-----0--0--0--7-----5-------|-------------------------|
-------------------------------|-------------------------|

-------------------------------|-------------------------|
-------------------------------|-------------------------|
--0-----0--0--0--7-----5-------|-----------5-------------|
--0-----0--0--0--7-----5-------|--5--6--5-----5--6--5----|
--0-----0--0--0--7-----5-------|-------------------------|
-------------------------------|-------------------------|

-------------------------------|-------------------------|
-------------------------------|-------------------------|
--0-----0--0--0--7-----5-------|-------------------------|
--0-----0--0--0--7-----5-------|--5--6--5--6--5--6--5----|
--0-----0--0--0--7-----5-------|-------------------------|
-------------------------------|-------------------------|

-------------------------------|-------------------------|
-------------------------------|-------------------------|
--0-----0--0--0--7-----5-------|-----------5-------------|
--0-----0--0--0--7-----5-------|--5--6--5-----5--6--5----|
--0-----0--0--0--7-----5-------|-------------------------|
-------------------------------|-------------------------|

-------------------------------|-------------------------|
-------------------------------|-------------------------|
--0-----0--0--0--7-----5-------|-------------------------|
--0-----0--0--0--7-----5-------|--5--6--5--6--5--6--5----|
--0-----0--0--0--7-----5-------|-------------------------|
-------------------------------|-------------------------|

-------------------------|--------------7----------------|
-------------------------|--10----8-----------8--10------|
--------7--------7-------|-------------------------------|
--7h-9-----7h-9----------|-------------------------------|
-------------------------|-------------------------------|
-------------------------|-------------------------------|

--7--8--7----------------|-------------------------------|
--------------10-8-------|--------8----------------------|
-------------------------|--9-----------9-----7-----7----|
-------------------------|-------------------------------|
-------------------------|-------------------------------|
-------------------------|-------------------------------|

-------------------------|--------7--8-------------------|
-------------------------|--10-------------8--10----10---|
--------7--------7-------|-------------------------------|
--7h-9-----7h-9----------|-------------------------------|
-------------------------|-------------------------------|
-------------------------|-------------------------------|

--7--8--7----------------|-------|-------|-------|----------------------------|
--------------10-8-------|-------|-------|-------|----------------------------|
-------------------------|--9----|--5----|--5----|--10-10-10s9--9--9s-8--8----|
-------------------------|-------|--5----|--5----|--10-10-10s9--9--9s-8--8----|
-------------------------|-------|--5----|--5----|--10-10-10s9--9--9s-8--8----|
-------------------------|-------|-------|-------|----------------------------|

----------------------------|----------------------------|
----------------------------|----------------------------|
--8s-7--7--7s-6--6--6s-5----|--0-----0-----------0--0----|
--8s-7--7--7s-6--6--6s-5----|--0-----0-----------0--0----|
--8s-7--7--7s-6--6--6s-5----|--0-----0-----------0--0----|
----------------------------|----------------------------|

----------------------------|-------------------------------|
----------------------------|-------------------------------|
--0-----0--0--0-----0--0----|--0-----0--0--0--7-----5-------|
--0-----0--0--0-----0--0----|--0-----0--0--0--7-----5-------|
--0-----0--0--0-----0--0----|--0-----0--0--0--7-----5-------|
----------------------------|-------------------------------|

-------------------------|-------------------------------|
-------------------------|-------------------------------|
-----------5-------------|--0-----0--0--0--7-----5-------|
--5--6--5-----5--6--5----|--0-----0--0--0--7-----5-------|
-------------------------|--0-----0--0--0--7-----5-------|
-------------------------|-------------------------------|

-------------------------|-------------------------------|
-------------------------|-------------------------------|
-------------------------|--0-----0--0--0--7-----5-------|
--5--6--5--6--5--6--5----|--0-----0--0--0--7-----5-------|
-------------------------|--0-----0--0--0--7-----5-------|
-------------------------|-------------------------------|

-------------------------|-------------------------------|
-------------------------|-------------------------------|
-----------5-------------|--0-----0--0--0--7-----5-------|
--5--6--5-----5--6--5----|--0-----0--0--0--7-----5-------|
-------------------------|--0-----0--0--0--7-----5-------|
-------------------------|-------------------------------|

-------------------------|-------------------------------|
-------------------------|-------------------------------|
-------------------------|--0-----0--0--0--7-----5-------|
--5--6--5--6--5--6--5----|--0-----0--0--0--7-----5-------|
-------------------------|--0-----0--0--0--7-----5-------|
-------------------------|-------------------------------|

-------------------------|-------------------------------|
-------------------------|-------------------------------|
-----------5-------------|--0-----0--0--0--7-----5-------|
--5--6--5-----5--6--5----|--0-----0--0--0--7-----5-------|
-------------------------|--0-----0--0--0--7-----5-------|
-------------------------|-------------------------------|

-------------------------|-------------------------------|
-------------------------|-------------------------------|
-------------------------|--0-----0--0--0--7-----5-------|
--5--6--5--6--5--6--5----|--0-----0--0--0--7-----5-------|
-------------------------|--0-----0--0--0--7-----5-------|
-------------------------|-------------------------------|

-------------------------|-------------------------------|
-------------------------|-------------------------------|
-----------5-------------|--0-----0--0--0--7-----5-------|
--5--6--5-----5--6--5----|--0-----0--0--0--7-----5-------|
-------------------------|--0-----0--0--0--7-----5-------|
-------------------------|-------------------------------|

-------------------------|-------------------------|
-------------------------|-------------------------|
-------------------------|--------7--------7-------|
--5--6--5--6--5--6--5----|--7h-9-----7h-9----------|
-------------------------|-------------------------|
-------------------------|-------------------------|

--------------7----------------|--7--8--7----------------|
--10----8-----------8--10------|--------------10-8-------|
-------------------------------|-------------------------|
-------------------------------|-------------------------|
-------------------------------|-------------------------|
-------------------------------|-------------------------|

-------------------------------|-------------------------|
--------8----------------------|-------------------------|
--9-----------9-----7-----7----|--------7--------7-------|
-------------------------------|--7h-9-----7h-9----------|
-------------------------------|-------------------------|
-------------------------------|-------------------------|

--------7--8-------------------|--7--8--7----------------|-------|-------|
--10-------------8--10----10---|--------------10-8-------|-------|-------|
-------------------------------|-------------------------|--9----|--5----|
-------------------------------|-------------------------|-------|--5----|
-------------------------------|-------------------------|-------|--5----|
-------------------------------|-------------------------|-------|-------|

-------|----------------------------|----------------------------|
-------|----------------------------|----------------------------|
--5----|--10-10-10s9--9--9s-8--8----|--8s-7--7--7s-6--6--6s-5----|
--5----|--10-10-10s9--9--9s-8--8----|--8s-7--7--7s-6--6--6s-5----|
--5----|--10-10-10s9--9--9s-8--8----|--8s-7--7--7s-6--6--6s-5----|
-------|----------------------------|----------------------------|

----------------------------|----------------------------|
----------------------------|----------------------------|
--0-----0-----0--0--0--0----|--0-----0-----0--0--0--0----|
--0-----0-----0--0--0--0----|--0-----0-----0--0--0--0----|
--0-----0-----0--0--0--0----|--0-----0-----0--0--0--0----|
----------------------------|----------------------------|

----------------------------|----------------------------|
----------------------------|----------------------------|
--0-----0-----0--0--0--0----|--0-----0-----0--0--0--0----|
--0-----0-----0--0--0--0----|--0-----0-----0--0--0--0----|
--0-----0-----0--0--0--0----|--0-----0-----0--0--0--0----|
----------------------------|----------------------------|

----------------------------|----------------------------|
----------------------------|----------------------------|
--15-15-15-15-15-15-15-15---|--14-14-14-14-14-14-14-14---|
----------------------------|----------------------------|
----------------------------|----------------------------|
----------------------------|----------------------------|

----------------------------|----------------------------|
----------------------------|----------------------------|
--12-12-12-12---------------|----------------------------|
--------------15-15-15-12---|--12-12-12-12-12-12-12-12---|
----------------------------|----------------------------|
----------------------------|----------------------------|

----------------------------|----------------------------|
----------------------------|----------------------------|
--15-15-15-15-15-15-15-15---|--14-14-14-14-14-14-14-14---|
----------------------------|----------------------------|
----------------------------|----------------------------|
----------------------------|----------------------------|

----------------------------|----------------------------|
----------------------------|----------------------------|
--12-12-12-12---------------|----------------------------|
--------------15-15-15-12---|--12-12-12-12-12-12-12-12---|
----------------------------|----------------------------|
----------------------------|----------------------------|

----------------------------------------------------|
----------------------------------------------------|
----------------------------------------------------|
----------------------------------------------------|
--15-15-15-15-15-15-15-15-15-15-15-15-15-15-15-15---|
----------------------------------------------------|

----------------------------------------------------|
----------------------------------------------------|
----------------------------------------------------|
--------------------------10-10-10-12-12b12b12b12b--|
--15-15-15-15-15-15-15-15---------------------------|
----------------------------------------------------|

----------------------------------------------------|
----------------------------------------------------|
----------------------------------------------------|
--12b12b12b12b12b12b12b12b12b12b12b12b12b12b12b12b--|
----------------------------------------------------|
----------------------------------------------------|

----------------------------------------------------|
----------------------------------------------------|
----------------------------------------------------|
--12b12b12b12b12b12b12b12b12b12b12b12b12b12b12-12---|
----------------------------------------------------|
----------------------------------------------------|

----------------------------------------------------|
----------------------------------------------------|
----------------------------------------------------|
--15-15-15-17-17-17-17-17-17-17-17-17-17-17-17-17---|
----------------------------------------------------|
----------------------------------------------------|

----------------------------------------------------|
----------------------------------------------------|
----------------------------------------------------|
--17-17-17-17-17-15-15-15-15-15-12-12-12-12-12-12---|
----------------------------------------------------|
----------------------------------------------------|

----------------------------------------------------|
----------------------------------------------------|
----------------------------------------------------|
--12-12-12-12-12-12-12-12-12-12-12-12-12-12-12-12---|
----------------------------------------------------|
----------------------------------------------------|

----------------------------------------------------|
----------------------------------------------------|
----------------------------------------------------|
--12-12-12-12-12-12-17-17-17-17-17-17-17-17-15-15---|
----------------------------------------------------|
----------------------------------------------------|

----------------------------------------------------|
----------------------------------------------------|
----------------------------------------------------|
--15-17-17-17-17-17-17-17-17-17-17-17-17-17-17-17---|
----------------------------------------------------|
----------------------------------------------------|

----------------------------------------------------|
----------------------------------------------------|
--15-15-15-17b---------17----15-------------19------|
----------------------------------------------------|
----------------------------------------------------|
----------------------------------------------------|

----------------------------------------------------|
----------------------------------------------------|
--19-19-19-19-19-19-19-19-19-19-19-19-19-19-19-19---|
----------------------------------------------------|
----------------------------------------------------|
----------------------------------------------------|

----------------------------------------------------|
----------------------------------------------------|
--19-19-19-19-19-19-19-19-19-19-19-19-19-19-19-19---|
----------------------------------------------------|
----------------------------------------------------|
----------------------------------------------------|

----------------------------------------------------|
----------------------------------------------------|
--19-19-19-19-19-19-19-19-19-19-19-19-19-19-19-19---|
----------------------------------------------------|
--19-19-19-19-19-19-19-19-19-19-19-19-19-19-19-19---|
----------------------------------------------------|

----------------------------------------------------|
----------------------------------------------------|
--19-19-19-19-19-19-19-19-19-19-19-19-19-19-19-19---|
----------------------------------------------------|
--19-19-19-19-19-19-19-19-19-19-19-19-19-19-19-19---|
----------------------------------------------------|

----------------------------------------------------|
----------------------------------------------------|
--15-15-15-15-15-15-15-15-15-15-15-15-15-15-15-15---|
----------------------------------------------------|
--15-15-15-15-15-15-15-15-15-15-15-15-15-15-15-15---|
----------------------------------------------------|

----------------------------------------------------|
----------------------------------------------------|
--15-15-15-15-15-15-15-15-15-15-15-15-15-15-15-15---|
----------------------------------------------------|
--15-15-15-15-15-15-15-15-15-15-15-15-15-15-15-15---|
----------------------------------------------------|

----------------------------------------------------|
----------------------------------------------------|
--17-17-17-17-17-17-17-17-17-17-17-17-17-17-17-17---|
----------------------------------------------------|
--17-17-17-17-17-17-17-17-17-17-17-17-17-17-17-17---|
----------------------------------------------------|

----------------------------------------------------|
----------------------------------------------------|
--17-17-17-17-17-17-17-17-17-17-17-17-17-17-17-17---|
----------------------------------------------------|
--17-17-17-17-17-17-17-17-17-17-17-17-17-17-17-17---|
----------------------------------------------------|

----------------------------------------------------|
----------------------------------------------------|
--19-19-19-19-19-19-19-19-19-19-19-19-19-19-19-19---|
----------------------------------------------------|
--19-19-19-19-19-19-19-19-19-19-19-19-19-19-19-19---|
----------------------------------------------------|

w  w  w  w
----------------------------------------------------|----------------|-------|
----------------------------------------------------|----------------|-------|
--19-19-19-19-19-19-19-19-19-19-19-19-19-19-19-19---|--19-19-19-19---|--21---|
----------------------------------------------------|----------------|-------|
--19-19-19-19-19-19-19-19-19-19-19-19-19-19-19-19---|--19-19-19-19---|-------|
----------------------------------------------------|----------------|-------|

w  w     w       w  w  w  w
----------------|----------------|-------|-------|-------|-------|-------|
----------------|----------------|--0----|--0----|--0----|--0----|--0----|
--15-17----17---|--17-17-17-17---|--0----|--0----|--0----|--0----|--0----|
----------------|----------------|--0----|--0----|--0----|--0----|--0----|
--15-17----17---|----------------|-------|-------|-------|-------|-------|
----------------|----------------|-------|-------|-------|-------|-------|

-------|-------|-------|-------|-------|-------|-------|-------|-------|
--0----|--0----|--0----|--0----|--0----|--0----|--0----|--0----|--0----|
--0----|--0----|--0----|--0----|--0----|--0----|--0----|--0----|--0----|
--0----|--0----|--0----|--0----|--0----|--0----|--0----|--0----|--0----|
-------|-------|-------|-------|-------|-------|-------|-------|--0----|
-------|-------|-------|-------|-------|-------|-------|-------|-------|

----------------------------|----------------------------|
-----0-----0-----0-----0----|-----1-----1-----1-----1----|
--0-----------0-------------|--0-----------0-------------|
--------0-----------0-------|--------0-----------0-------|
----------------------------|----------------------------|
----------------------------|----------------------------|

----------------------------|----------------------------|
-----0-----0-----0-----0----|-----1-----1-----1-----1----|
--0-----------0-------------|--0-----------0-------------|
--------0-----------0-------|--------0-----------0-------|
----------------------------|----------------------------|
----------------------------|----------------------------|

----------------------------|----------------------------|
-----0-----0-----0-----0----|-----1-----1-----1-----1----|
--0-----------0-------------|--0-----------0-------------|
--------0-----------0-------|--------0-----------0-------|
----------------------------|----------------------------|
----------------------------|----------------------------|

----------------------------|----------------------------|
-----0-----0-----0-----0----|-----1-----1-----1-----1----|
--0-----------0-------------|--0-----------0-------------|
--------0-----------0-------|--------0-----------0-------|
----------------------------|----------------------------|
----------------------------|----------------------------|

----------------------------|----------------------------|
-----0-----0-----0-----0----|-----1-----1-----1-----1----|
--0-----------0-------------|--0-----------0-------------|
--------0-----------0-------|--------0-----------0-------|
----------------------------|----------------------------|
----------------------------|----------------------------|

----------------------------|----------------------------|
-----0-----0-----0-----0----|-----1-----1-----1-----1----|
--0-----------0-------------|--0-----------0-------------|
--------0-----------0-------|--------0-----------0-------|
----------------------------|----------------------------|
----------------------------|----------------------------|

----------------------------|----------------------------|
----------------------------|----------------------------|
--12-12-12-12-12-12-12-12---|--12-12-12-12-12-12-12-12---|
----------------------------|--10-10-10-10-12-12-12-12---|
--12-12-12-12-12-12-12-12---|--12-12-12-12-12-12-12-12---|
----------------------------|----------------------------|

----------------------------|----------------------------|
----------------------------|----------------------------|
--12-12-12-12-12-12-12-12---|--12-12-12-12-12-12-12-12---|
----------------------------|--10-10-10-10-12-12-12-12---|
--12-12-12-12-12-12-12-12---|--12-12-12-12-12-12-12-12---|
----------------------------|----------------------------|

----------------------------------------------------|
----------------------------------------------------|
--12-12-12-12-12-12-12-12-12-12-12-12-12-12-12-12---|
----------------------------------------------------|
--12-12-12-12-12-12-12-12-12-12-12-12-12-12-12-12---|
----------------------------------------------------|

----------------------------------------------------|
----------------------------------------------------|
--12-12-12-12-12-12-12-12-12-12-12-12-12-12-12-12---|
--10-10-10-10-10-10-10-10-12-12-12-12-12-12-12-12---|
--12-12-12-12-12-12-12-12-12-12-12-12-12-12-12-12---|
----------------------------------------------------|

----------------------------------------------------|
----------------------------------------------------|
--12-12-12-12-12-12-12-12-12-12-12-12-12-12-12-12---|
----------------------------------------------------|
--12-12-12-12-12-12-12-12-12-12-12-12-12-12-12-12---|
----------------------------------------------------|

----------------------------------------------------|
----------------------------------------------------|
--12-12-12-12-12-12-12-12-12-12-12-12-12-12-12-12---|
--10-10-10-10-10-10-10-10-12-12-12-12-12-12-12-12---|
--12-12-12-12-12-12-12-12-12-12-12-12-12-12-12-12---|
----------------------------------------------------|

----------------------------|----------------------------|
----------------------------|----------------------------|
--0-----0-------------------|----------------------------|
--0-----0-------------------|----------------------------|
--0-----0-----------0--0----|--0-----0--0--0--0--0--0----|
----------------------------|----------------------------|

----------------------------|----------------------------|
----------------------------|----------------------------|
--0-----0-------------------|----------------------------|
--0-----0-------------------|----------------------------|
--0-----0-----------0--0----|--0-----0--0--0--0--0--0----|
----------------------------|----------------------------|

-------------------------------|-------------------------|
-------------------------------|-------------------------|
--0-----0----------------------|-------------------------|
--0-----0-----------------5----|--------5--------5-------|
--0-----0-----------7h-9-------|--0-----------0-----0----|
-------------------------------|-------------------------|

-------------------------------|-------------------------|
-------------------------------|-------------------------|
--0-----0----------------------|-------------------------|
--0-----0-----------------5----|--------5--------5-------|
--0-----0-----------7h-9-------|--7h-9--------0-----0----|
-------------------------------|-------------------------|

-------------------------------|-------------------------|
-------------------------------|-------------------------|
--0-----0----------------------|-------------------------|
--0-----0-----------------5----|--------5--------5-------|
--0-----0-----------7h-9-------|--0-----------0-----0----|
-------------------------------|-------------------------|

-------------------------------|-------------------------|
-------------------------------|-------------------------|
--0-----0----------------------|-------------------------|
--0-----0-----------------5----|--------5--------5-------|
--0-----0-----------7h-9-------|--7h-9--------0-----0----|
-------------------------------|-------------------------|

-------------------------------|-------------------------|
-------------------------------|-------------------------|
--0-----0----------------------|-------------------------|
--0-----0-----------------5----|--------5--------5-------|
--0-----0-----------7h-9-------|--0-----------0-----0----|
-------------------------------|-------------------------|

-------------------------------|-------------------------|
-------------------------------|-------------------------|
--0-----0----------------------|-------------------------|
--0-----0-----------------5----|--------5--------5-------|
--0-----0-----------7h-9-------|--7h-9--------0-----0----|
-------------------------------|-------------------------|

-------------------------------|-------------------------|
-------------------------------|-------------------------|
--0-----0----------------------|-------------------------|
--0-----0-----------------5----|--------5--------5-------|
--0-----0-----------7h-9-------|--0-----------0-----0----|
-------------------------------|-------------------------|

-------------------------------|-------------------------|
-------------------------------|-------------------------|
--0-----0----------------------|-------------------------|
--0-----0-----------------5----|--------5--------5-------|
--0-----0-----------7h-9-------|--7h-9--------0-----0----|
-------------------------------|-------------------------|

-------------------------------|-------------------------|
-------------------------------|-------------------------|
--0-----0----------------------|-------------------------|
--0-----0-----------------5----|--------5--------5-------|
--0-----0-----------7h-9-------|--0-----------0-----0----|
-------------------------------|-------------------------|

-------------------------------|-------------------------|
-------------------------------|-------------------------|
--0-----0----------------------|-------------------------|
--0-----0-----------------5----|--------5--------5-------|
--0-----0-----------7h-9-------|--7h-9--------0-----0----|
-------------------------------|-------------------------|

-------------------------------|-------------------------|
-------------------------------|-------------------------|
--0-----0----------------------|-------------------------|
--0-----0-----------------5----|--------5--------5-------|
--0-----0-----------7h-9-------|--0-----------0-----0----|
-------------------------------|-------------------------|

-------------------------------|-------------------------|
-------------------------------|-------------------------|
--0-----0----------------------|-------------------------|
--0-----0-----------------5----|--------5--------5-------|
--0-----0-----------7h-9-------|--7h-9--------0-----0----|
-------------------------------|-------------------------|

-------------------------------|-------------------------|
-------------------------------|-------------------------|
--0-----0----------------------|-------------------------|
--0-----0-----------------5----|--------5--------5-------|
--0-----0-----------7h-9-------|--0-----------0-----0----|
-------------------------------|-------------------------|

-------------------------------|-------------------------|
-------------------------------|-------------------------|
--0-----0----------------------|-------------------------|
--0-----0-----------------5----|--------5--------5-------|
--0-----0-----------7h-9-------|--7h-9--------0-----0----|
-------------------------------|-------------------------|

-------------------------------|-------------------------||
-------------------------------|-------------------------||
--0-----0----------------------|-------------------------||
--0-----0-----------------5----|--------5--------5-------||
--0-----0-----------7h-9-------|--0-----------0-----0----||
-------------------------------|-------------------------||

Almost there ...

Sign in to get your own page with links to favourite songs and more. You are just one click away...

Login with Facebook Login with Google