Log in

One click and you are in

Login with Facebook Login with Google

Why sign up and log in

Guitar Tabs Explorer
The Sonder Bombs chords for Twinkle lights ukulele

Twinkle Lights Ukulele chords by The Sonder Bombs

The Sonder Bombs chords for Twinkle lights ukulele

Guitar chords with lyrics

NOTE: This song is played on a soprano ukulele that is tuned down by two half-steps.
In order to play in the correct key you should tune your ukulele to F Bb D G

Ab: 7565:
Eb: 5550:
Bbmaj6: 0000:
Eb*: 5553:
Eb6(add9): 0550:
Intro:

  Ab        Eb        Bbmaj9      Eb*
G |--------5-----------------0-----------------0-----------------3--------------|
D |----6-----6---6-------5-----5---5-------0-----0---0-------5-----5-------5----|
Bb|--5---5-----5-------5---5-----5-------0---0-----0-------5---5-------5--------|
F |------------------------------------------------------------------5---5---5--|

  Ab        Eb        Bbmaj9      Eb*
                                  Well there's
G |--------5-----------------0-----------------0-----------------3--------------|
D |----6-----6---6-------5-----5---5-------0-----0---0-------5-----5-------5----|
Bb|--5---5-----5-------5---5-----5-------0---0-----0-------5---5-------5--------|
F |------------------------------------------------------------------5---5---5--|


Chorus:

  Ab        Eb        Bbmaj9      Eb*
  Nothing      really      wrong with   me     I'm just
G |--------5-----------------0-----------------0-----------------3--------------|
D |----6-----6---6-------5-----5---5-------0-----0---0-------5-----5-------5----|
Bb|--5---5-----5-------5---5-----5-------0---0-----0-------5---5-------5--------|
F |------------------------------------------------------------------5---5---5--|

  Ab        Eb        Bbmaj9      Eb*
  Choking      almost      constantly         Oh there's
G |--------5-----------------0-----------------0-----------------3--------------|
D |----6-----6---6-------5-----5---5-------0-----0---0-------5-----5-------5----|
Bb|--5---5-----5-------5---5-----5-------0---0-----0-------5---5-------5--------|
F |------------------------------------------------------------------5---5---5--|

  Ab        Eb        Bbmaj9      Eb*
  Nothing      really      wrong  with   me
G |--------5-----------------0-----------------0-----------------3--------------|
D |----6-----6---6-------5-----5---5-------0-----0---0-------5-----5-------5----|
Bb|--5---5-----5-------5---5-----5-------0---0-----0-------5---5-------5--------|
F |------------------------------------------------------------------5---5---5--|

Interlude:

  Ab        Eb        Bbmaj9      Eb*
G |--------5-----------------0-----------------0-----------------3--------------|
D |----6-----6---6-------5-----5---5-------0-----0---0-------5-----5-------5----|
Bb|--5---5-----5-------5---5-----5-------0---0-----0-------5---5-------5--------| x3
F |------------------------------------------------------------------5---5---5--|

Verse 1:

    Ab    Eb     Bbmaj9     Eb*
Well at fourteen years old I finally had to say no

    Ab   Eb     Bbmaj9     Eb*
And at fourteen years old I finally had to let go

    Ab   Eb      Bbmaj9    Eb*
And at fourteen years old I was basically fully grown

    Ab   Eb      Bbmaj9      Eb*          Ab  Eb
I was fourteen years old but still the saddest kid I'll ever fucking know

        Bmaj9     Eb*
I don't really talk about it though

    Ab        Eb
So I'll pretend that I'm fine

   Bbmaj9       Eb*         Ab
Then proceed to watch my best friend lose her mind

               Eb    Bbmaj9
And there was nothing I could say or do

             Eb*        Ab     Eb Bbmaj9 Eb*
And there's no amount of time that would've helped you

      Ab   Eb Bmaj9 Eb*
Although I tried to


Chorus:

       Ab   Eb   Bbmaj9  Eb*
Well there's nothing really wrong with me

     Ab   Eb   Bbmaj9  Eb*
I'm just choking almost constantly

      Ab   Eb   Bbmaj9   Eb*  Ab Eb Bbmaj9 Eb*
Oh there's nothing really wrong with me

Interlude:

  Ab        Eb        Bbmaj9      Eb*
G |--------5-----------------0-----------------0-----------------3--------------|
D |----6-----6---6-------5-----5---5-------0-----0---0-------5-----5-------5----|
Bb|--5---5-----5-------5---5-----5-------0---0-----0-------5---5-------5--------| x2
F |------------------------------------------------------------------5---5---5--|


Verse 2:

    Ab    Eb     Bbmaj9     Eb*
Well at nineteen years old I still had never really been told that at

Ab    Eb      Bbmaj9       Eb*
Nineteen years old I'm fucking allowed to fucking say no

    Ab    Eb        Bbmaj9     Eb*
At and nineteen years old there's only a few ways this could go

   Ab    Eb      Bbmaj9           Eb*       Ab   Eb  Bbmaj9 Eb*
I was nineteen years old but still not stronger than his hands across my throat

           Ab  Eb Bbmaj9 Eb*
But that's the way it goes

         Ab  Eb Bbmaj9 Eb*
That's the way it goes


Break:

Ab Eb Bmaj9 Eb* x4


Chorus:

       Ab    Eb   Bbmaj9  Eb*
Well there's something really wrong with me

     Ab   Eb   Bbmaj9 Eb*
Cause I'm choking almost constantly

       Ab    Eb   Bbmaj9  Eb*
Well there's something really wrong with me

Ab Eb Bbmaj9 Eb6(add9)

Almost there ...

Sign in to get your own page with links to favourite songs and more. You are just one click away...

Login with Facebook Login with Google