Guitar Tabs Explorer
Soft Cell bass tabs for Heat

Heat bass tab


Be the first to rate


Bassm99Author: Bassm99

Jamplay guitar lessons

Heat bass tab by Soft Cell

`Heat` from the album `The Art Of Falling Apart` (1983). Written by Almond/Ball.

Bass tabs

Print
  • Tuning: Standard tuning
  • Difficulty: Novice

Tabbed by: bassm99
E-mail: alanmatthews1966@yahoo.co.uk

Tuning: E, A, D, G

Bass Starts: 0:02

Intro:

G|--------------------------------------------------------------------------|
D|--------------------------------------------------------------------------|
A|--------------------------------------------------------------------------|
E|--11---11---11------------------------------------------------------------|

G|--------------------------------------------------------------------------|
D|--------------------------------------------------------------------------|
A|--------------------------------------------------------------------------|
E|--11-11-11-11-11-11-11-11---11-11-11-11-11-11-11-11-----------------------|

G|--------------------------------------------------------------------------|
D|--------------------------------------------------------------------------|
A|--13-13-13-13-13-13-13-13---13-13-13-13-13-13-13-13-----------------------|
E|------------------------------------------------------9-9-9-9-9-9-9-9-----|

G|--------------------------------------------------------------------------|
D|--------------------------------------------------------------------------|
A|--------------------11-11-11-11-11-11-11-11---11-11-11-11-11-11-11-11-----|
E|--9-9-9-9-9-9-9-9---------------------------------------------------------|

G|--------------------------------------------------------------------------|
D|--------------------------------------------------------------------------|
A|--9-9-9-9-9-9-9-9---11-11-11-11-11-11-11-11-------------------------------|
E|----------------------------------------------11-11-11-11-11-11-11-11-----|

G|--------------------------------------------------------------------------|
D|--------------------------------------------------------------------------|
A|--------------------------------------------------------------------------|
E|--11-11-11-11-11-11-11-11-------------------------------------------------|

G|--------------------------------------------------------------------------|
D|--------------------------------------------------------------------------|
A|--9-9-9-9-9-9-9-9---11-11-11-11-11-11-11-11---13-13-13-13-13-13-13-13-----|
E|--------------------------------------------------------------------------|

G|--------------------------------------------------------------------------|
D|--------------------------------------------------------------------------|
A|--13-13-13-13-13-13-13-13-------------------------------------------------|
E|--------------------------------------------------------------------------|

Verse: (Play 3 Times)

G|--------------------------------------------------------------------------|
D|--------------------------------------------------------------------------|
A|--9-9-9-9-9-9-9-9---11-11-11-11-11-11-11-11-------------------------------|
E|----------------------------------------------11-11-11-11-11-11-11-11-----|

G|--------------------------------------------------------------------------|
D|--------------------------------------------------------------------------|
A|--------------------------------------------------------------------------|
E|--11-11-11-11-11-11-11-11-------------------------------------------------|

G|--------------------------------------------------------------------------|
D|--------------------------------------------------------------------------|
A|--9-9-9-9-9-9-9-9---11-11-11-11-11-11-11-11---13-13-13-13-13-13-13-13-----|
E|--------------------------------------------------------------------------|

G|--------------------------------------------------------------------------|
D|--------------------------------------------------------------------------|
A|--13-13-13-13-13-13-13-13-------------------------------------------------|
E|--------------------------------------------------------------------------|

Chorus: (Play Twice)

G|--------------------------------------------------------------------------|
D|--------------------------------------------------------------------------|
A|--------------------------------------------------------------------------|
E|--11-11-11-11-11-11-11-11---11-11-11-11-11-11-11-11-----------------------|

G|--------------------------------------------------------------------------|
D|--------------------------------------------------------------------------|
A|--13-13-13-13-13-13-13-13---13-13-13-13-13-13-13-13-----------------------|
E|------------------------------------------------------9-9-9-9-9-9-9-9-----|

G|--------------------------------------------------------------------------|
D|--------------------------------------------------------------------------|
A|--------------------11-11-11-11-11-11-11-11---11-11-11-11-11-11-11-11-----|
E|--9-9-9-9-9-9-9-9---------------------------------------------------------|

Pre Verse:

G|--------------------------------------------------------------------------|
D|--------------------------------------------------------------------------|
A|--9-9-9-9-9-9-9-9---11-11-11-11-11-11-11-11-------------------------------|
E|----------------------------------------------11-11-11-11-11-11-11-11-----|

G|--------------------------------------------------------------------------|
D|--------------------------------------------------------------------------|
A|--------------------------------------------------------------------------|
E|--11-11-11-11-11-11-11-11-------------------------------------------------|

G|--------------------------------------------------------------------------|
D|--------------------------------------------------------------------------|
A|--9-9-9-9-9-9-9-9---11-11-11-11-11-11-11-11---13-13-13-13-13-13-13-13-----|
E|--------------------------------------------------------------------------|

G|--------------------------------------------------------------------------|
D|--------------------------------------------------------------------------|
A|--13-13-13-13-13-13-13-13-------------------------------------------------|
E|--------------------------------------------------------------------------|

Repeat Verse:

Repeat Chorus:

Bridge: (Play 4 Times)

G|--------------------------------------------------------------------------|
D|--------------------------------------------------------------------------|
A|--13-13-13-13-13-13-13-13---11-11-11-11-11-11-11-11---9-9-9-9-9-9-9-9-----|
E|--------------------------------------------------------------------------|

G|--------------------------------------------------------------------------|
D|--------------------------------------------------------------------------|
A|--9-9-9-9-9-9-9-9---------------------------------------------------------|
E|--------------------------------------------------------------------------|

Outro Chorus: (Play 20 Times) (3:33 - 5:50)

G|--------------------------------------------------------------------------|
D|--------------------------------------------------------------------------|
A|--13-13-13-13-13-13-13-13---11-11-11-11-11-11-11-11---9-9-9-9-9-9-9-9-----|
E|--------------------------------------------------------------------------|

G|--------------------------------------------------------------------------|
D|--------------------------------------------------------------------------|
A|--9-9-9-9-9-9-9-9---------------------------------------------------------|
E|--------------------------------------------------------------------------|

End:

G|--------------------------------------------------------------------------|
D|--------------------------------------------------------------------------|
A|--13-13-13-13-13-13-13-13---11-11-11-11-11-11-11-11---9-9-9-9-9-9-9-9-----|
E|--------------------------------------------------------------------------|

G|--------------------------------------------------------------------------|
D|--------------------------------------------------------------------------|
A|--9-9-9-9-----------------------------------------------------------------|
E|--------------------------------------------------------------------------|

Bass Stops: 5:56

Comment this song and these bass tabs

Do you have corrections, comments on the bass tabs, thoughts about the song or a message to the author? Write them below.