Log in

One click and you are in

Login with Facebook Login with Google

Why sign up and log in

Guitar Tabs Explorer
Soda Stereo bass tabs for Un millón de años luz

Un Millón De Años Luz bass tab by Soda Stereo

Soda Stereo bass tabs for Un millón de años luz

Bass tabs

Tuning: Standard (E A D G)


Intro: (start at 0:23)

G|-----|
D|-----|
A|-----|
E|-15\-|

G|-----------------------------|------------------------------|x2
D|-----------------------------|------------------------------|
A|-----------------------------|------------------------------|
E|-7-7--7-5-5--5-4-4--4-2-2--2/|-7-7--7-5-5--5-4-4--4-0-0-2-0-|

Verse 1:

G|-----------------------------|------------------------------|x2
D|-----------------------------|------------------------------|
A|-----------------------------|------------------------------|
E|-7-7--7-5-5--5-4-4--4-2-2--2/|-7-7--7-5-5--5-4-4--4-0-0-2-0-|


Chorus:

G|----------------------------|------------------------|
D|----------------------------|------------------------|
A|-----x5-5-------0-5-5-5-4---|-----x5-5---------------|
E|-7-7------0-4-4-----------5-|-7-7------0~----4-4-5-5-|

G|----------------------------|------------------------|
D|----------------------------|------------------------|
A|-----x5-5-------0-5-5-5-4---|-----x5-5---------------|
E|-7-7------0-4-4-----------5-|-7-7------0~------------|

G|----------------------------|------------------------|
D|----------------------------|------------------------|
A|-----x5-5-------0-5-5-5-4---|-----x5-5---------------|
E|-7-7------0-4-4-----------5-|-7-7------0~----4-4-5-5-|

G|----------------------------|------------------------|
D|----------------------------|------------------------|
A|-----x5-5-------0-5-5-5-4---|-----x5-5---------------|
E|-7-7------0-4-4-----------5-|-7-7------0~------------|


Verse 2:

G|-----------------------------|------------------------------|x2
D|-----------------------------|------------------------------|
A|-----------------------------|------------------------------|
E|-7-7--7-5-5--5-4-4--4-2-2--2/|-7-7--7-5-5--5-4-4--4-0-0-2-0-|


Solo:

G|-----------------------------|------------------------------|x2
D|-----------------------------|------------------------------|
A|-----------------------------|------------------------------|
E|-7-7--7-5-5--5-4-4--4-2-2--2/|-7-7--7-5-5--5-4-4--4-0-0-2-0-|


Chorus 2:

G|----------------------------|------------------------|
D|----------------------------|------------------------|
A|-----x5-5-------0-5-5-5-4---|-----x5-5---------------|
E|-7-7------0-4-4-----------5-|-7-7------0~----4-4-5-5-|

G|----------------------------|------------------------|
D|----------------------------|------------------------|
A|-----x5-5-------0-5-5-5-4---|-----x5-5---------------|
E|-7-7------0-4-4-----------5-|-7-7------0~------------|


Verse 3:

G|-----------------------------|------------------------------|x2
D|-----------------------------|------------------------------|
A|-----------------------------|------------------------------|
E|-7-7--7-5-5--5-4-4--4-2-2--2/|-7-7--7-5-5--5-4-4--4-0-0-2-0-|


Bridge: (mute)


Outro: (repeat until the end)

G|-----------------------------|------------------------------|
D|-----------------------------|------------------------------|
A|-----------------------------|------------------------------|
E|-7-7--7-5-5--5-4-4--4-2-2--2/|-7-7--7-5-5--5-4-4--4-0-0-2-0-|


************************************

| x  Dead note
| /  Slide up
| \  Slide down
| ~  Vibrato

************************************

Almost there ...

Sign in to get your own page with links to favourite songs and more. You are just one click away...

Login with Facebook Login with Google