Log in

One click and you are in

Login with Facebook Login with Google

Why sign up and log in

Guitar Tabs Explorer
Soda Stereo bass tabs for Corazón delator

Bass tabs

Tuning: Standard (E A D G)

Difficulty: Intermediate

Artista: Soda Stereo
Cancion: Corazon Delator
Album: Doble Vida
Año: 1988

Intro:

G|-----------------|
D|-----------------|
A|-----------------|
D|-0~2~0~2~5~7~\2~-|

G|----------------------------------------------------|
D|----------------------------------------------------|
A|----------------------------------------------------|
D|-2~0-2/5~9\5\2~-0-2/5~9\5/7~5/7/10~10/12\7~5/7/10~\-|


Verse 1:
                                  \
G|----------------------------------------------------------------| |
D|-------------------------------------------------------14\9~----| |
A|----------------------------------------------------------------| |
D|-2~0-2/5~9\5\2~-0-2/5~9\5/7~5/7/10~10/12\7~5/7/10~9~10~------9~\| |
                                  | X2
G|--------------------|                       |
D|--------------------|                       |
A|--------------------|                       |
D|-4~3-3~2-0-2~-4~3-3~|                       |
                                  /

Chorus 1:

G|-----------------------------------------------------|
D|-----------------------------------------------------|
A|-3~-3~-------5h7\-----3-3---5h7\----3-3-2~1-1-----5-3|
D|-------7\5\2------2-2-----2------2-2----------3-3----|

G|-------------------------------------------------|
D|-------------------------------------------------|
A|---5h7\-----3-3---5h7\-----3-3-2~1-1-----5-3-----|
D|-2------2-2-----2------2-2-----------3-3-----7-5-|


---Rest---


Verse 2:

G|--------------------------------------------------9~---------|
D|----------------------------------------------------9~10~9~--|
A|-------------------------------------------------------------|
D|-2~0-2/5~9\0-2~-0-2/5~9\5/7~5/7/10~10/12\7~5/7/10~---------9\|

G|--------------------|
D|--------------------|
A|--------------------|
D|-4~3-3~2-0-2~-4~3-3~|



Chorus 2:

G|-----------------------------------------------------|
D|-----------------------------------------------------|
A|-3~-3~-------5h7\-----3-3---5h7\----3-3-2~1-1-----5-3|
D|-------7\5\2------2-2-----2------2-2----------3-3----|

G|------------------------------------------------------|
D|--------------------------5---------------------------|
A|---5h7\-----3-3---5h7-5-7---7-5-3-3-2~1-1-----5-3-----|
D|-2------2-2-----2-------------------------3-3-----7-5-|


Outro:

G|-----------|-------------|X6
D|-----------|-------------|
A|-------5-3-|---------5-3-|
D|-2-0-2-----|-0-2-0-2-----|

G|------------|
D|------------|
A|-2~-0~------|
D|-------5~-2~|


************************************

| h  Hammer-on
| /  Slide up
| \  Slide down
| ~  Vibrato

************************************

Almost there ...

Sign in to get your own page with links to favourite songs and more. You are just one click away...

Login with Facebook Login with Google