Log in

One click and you are in

Login with Facebook Login with Google

Why sign up and log in

Guitar Tabs Explorer
Social Distortion guitar tabs for Shes a knockout

Guitar tabs

Tuning: Half-Step Down (A chord diagramEb MajorEb A chord diagramAbAb A chord diagramDbDb A chord diagramGbGb A chord diagramBb majorBb A chord diagramEb MajorEb)


Gtr I (A chord diagramD#D# A chord diagramG#G# A chord diagramC#C# A chord diagramF#F# a# d#) - 'Mike Ness'
Intro & Chorus:

d#|-0-0------0-0--------|
a#|-0-0-3-3--0-0-3-3----|
F#|-x-x-0-2--x-x-0-2----|
C#|-2-2-0-0--2-2-0-0----|
G#|-2-2-x----2-2-x------|
D#|-0-0-3----0-0-3------|


Intro Solo                                                               ~~

d#|-12-12-12-------12-------12-12-------12-12-------12-12-12----------------|
a#|-12-12-12-------12-------12-12-------12-12-------12-12-12----------------|
F#|----------14b16----14b16-------14b16-------14b16----------14b16r14-12-12-|
C#|-------------------------------------------------------------------------|
G#|-------------------------------------------------------------------------|
D#|-------------------------------------------------------------------------|

                                        Hold bend!
d#|---------------------------------------------------------|
a#|----12----12----12----------------15-15----15----15------|
F#|----12----12----12-14-14-14-14b16----14b16-14b16-14b16---|
C#|-14----14----14------------------------------------------|
G#|---------------------------------------------------------|
D#|---------------------------------------------------------|

                   ~~
d#|------------------------------|
a#|------------------------------|
F#|-14b16r14p12-14-12------------|
C#|--------------------12tr14----|
G#|------------------------------|
D#|------------------------------|

Verse:

      PM--------|
d#|--------------------0-0--------|
a#|---------------3-3--0-0-3-3----|
F#|---------------0-2--x-x-0-2----|
C#|-2-2-2-2-2-2-2-0-0--2-2-0-0----|
G#|-2-2-2-2-2-2-2-x----2-2-x------|
D#|-0-0-0-0-0-0-0-3----0-0-3------|


Bridge:
    4x          then            2nd guitar Fill

d#|-0---------------0--------------12----12----|
a#|-0-3-3-----------0-----------12----12-------|
F#|-x-0-2-2---------x--------------------------|
C#|-2-0-0-2-----7-5-2--------------------------|
G#|-2-x---0-----7-5-2--------------------------|
D#|-0-3---------5-3-0--------------------------|



Solo:
                                                                ~~
d#|-------12-------12-12-------12-12-------12-12-12----------------|
a#|-------12-------12-12-------12-12-------12-12-12----------------|
F#|-14b16----14b16-------14b16-------14b16----------14b16r14-12-12-|
C#|----------------------------------------------------------------|
G#|----------------------------------------------------------------|
D#|----------------------------------------------------------------|


d#|-------------------------12-12-15-15-15-15-15-12-12-12-------12-------12-12\-|
a#|----12----12----12-------12-12-14-14-14-14-14-12-12-12-------12-------12-12\-|
F#|----12----12----12-14b16-------------------------------14b16----14b16--------|
C#|-14----14----14--------------------------------------------------------------|
G#|-----------------------------------------------------------------------------|
D#|-----------------------------------------------------------------------------|


d#|--0-0-3p2p0-------------0-3p2p0-------------0-3p2p0--------|
a#|------------3p2p0---------------3p2p0---------------3p2p0--|
F#|------------------2b3r2---------------2b3r2----------------|
C#|-----------------------------------------------------------|
G#|-----------------------------------------------------------|
D#|-----------------------------------------------------------|


d#|-3p2p0-------3p2p0-------3p2p0-------3/5-5-5-5-5-5-5-3-3-3-3-2-2-2-0-0-|
a#|-------3p2p0-------3p2p0-------3p2p0-----------------------------------|
F#|-----------------------------------------------------------------------|
C#|-----------------------------------------------------------------------|
G#|-----------------------------------------------------------------------|
D#|-----------------------------------------------------------------------|


d#|-0-0-0-0----------------------------------------------------------------------------|
a#|---------12-14b15r14-12-12--14-12-14-12-14-12--12-14b15r14-12-12----12----12----12--|
F#|---------12-14b15r14-12-12--14-12-14-12-14-12--12-14b15r14-12-12----12----12----12--|
C#|-----------------------------------------------------------------14----14----14-----|
G#|------------------------------------------------------------------------------------|
D#|------------------------------------------------------------------------------------|

                                                    ~~
d#|----------------------------------------------------------|
a#|-12-14b15r14-12-12----12----12----12-12-14b15r14-12-------|
F#|-12-14b15r14-12-12----12----12----12-12-14b15r14-12-------|
C#|-------------------14----14----14-------------------------|
G#|----------------------------------------------------------|
D#|----------------------------------------------------------|


Outro:

d#|-------12--12-12-------12-12-------12-12----|
a#|-------12--12-12-------12-12-------12-12----|
F#|-14b16-----------14b16-------14b16----------|
C#|--------------------------------------------|
G#|--------------------------------------------|
D#|--------------------------------------------|


************************************

| x   Dead note
| r   Release
| b   Bend
| p   Pull-off
| tr  Trill
| ~   Vibrato
| \   Slide down
| /   Slide up

************************************

Almost there ...

Sign in to get your own page with links to favourite songs and more. You are just one click away...

Login with Facebook Login with Google