Log in

One click and you are in

Login with Facebook Login with Google

Why sign up and log in

Guitar Tabs Explorer
Social Distortion guitar tabs for It coulda been me

Guitar tabs

Tuning: Half-Step Down (A chord diagramEb MajorEb A chord diagramAbAb A chord diagramDbDb A chord diagramGbGb A chord diagramBb majorBb A chord diagramEb MajorEb)



Gtr I (A chord diagramD#D# A chord diagramG#G# A chord diagramC#C# A chord diagramF#F# a# d#) - 'Mike Ness'
Intro 2x

d#|---0-0-----------0-0-----------|
a#|---0-0---3-3-----0-0---3-3-----|
F#|---x-x---0-0-----x-x---0-0-----|
C#|-2-2-2-2-0-0---2-2-2-2-0-0-----|
G#|-2-2-2-2-x-x---2-2-2-2-x-x-----|
D#|-0-0-0-0-3-3---0-0-0-0-3-3-----|


Verse:

    PM----|       PM----|
d#|-------------------------------|
a#|---------3-3-----------3-3-----|
F#|---------0-0-----------0-0-----|
C#|-2-2-2-2-0-0---2-2-2-2-0-0-----|
G#|-2-2-2-2-x-x---2-2-2-2-x-x-----|
D#|-0-0-0-0-3-3---0-0-0-0-3-3-----|


    PM----|       PM----|
d#|-------------------------------------------------------|
a#|---------3-3-----------3-3-----------------------------|
F#|---------0-0-----------0-0-----------------------------|
C#|-2-2-2-2-0-0---2-2-2-2-0-0--2-2-2-2-2-2-2-2-2-2-2-2----|
G#|-2-2-2-2-x-x---2-2-2-2-x-x--0-0-0-0-0-0-0-0-0-0-0-0----|
D#|-0-0-0-0-3-3---0-0-0-0-3-3-----------------------------|

Chorus:

    PM----|       PM----|
d#|-------------------------------------------------------|
a#|---------3-3-----------3-3-----------------------------|
F#|---------0-0-----------0-0-----------------------------|
C#|-2-2-2-2-0-0---2-2-2-2-0-0--4-4-4-4-4-4-4-4-4-4-4-2----|
G#|-2-2-2-2-x-x---2-2-2-2-x-x--2-2-2-2-2-2-2-2-2-2-2-0----|
D#|-0-0-0-0-3-3---0-0-0-0-3-3-----------------------------|


Solo:
                                       ~~~~~~~~
d#|-------12-12-12-------------------------------15-15-15-15-|
a#|-------12-12-12-------------------------------14-14-14-14-|
F#|-14b16----------14b16-14b16r14-12-12-12-12-12-------------|
C#|----------------------------------------------------------|
G#|----------------------------------------------------------|
D#|----------------------------------------------------------|

                                                      ~
d#|-15-12-12-12-------12-------12-15-15-15b17r=15-12-------|
a#|-14-12-12-12-------12-------12--------------------15----|
F#|-------------14b16----14b16-----------------------------|
C#|--------------------------------------------------------|
G#|--------------------------------------------------------|
D#|--------------------------------------------------------|

    Hold bend!
                                    ~~~~~                  ~     ~
d#|-17b19-17b19-17b19-17b19r17p15-------------------------------------------|
a#|-------------------------------17-17-17-15-17b19r17p15----15----15-15-15-|
F#|-------------------------------------------------------16----16----16-16-|
C#|-------------------------------------------------------------------------|
G#|-------------------------------------------------------------------------|
D#|-------------------------------------------------------------------------|

d#|-------------------12-----------------------------------------|
a#|-15/12-------------12--12----15-12----12----------------------|
F#|-------14p12-14b16-----14b16----14b16-14b16-14b16r14p12-------|
C#|--------------------------------------------------------14-14-|
G#|--------------------------------------------------------------|
D#|--------------------------------------------------------------|

                  ~~
d#|----------------------|
a#|----------------------|
F#|----------------------|
C#|-14-14-12tr14---14----|
G#|----------------------|
D#|----------------------|


************************************

| x   Dead note
| r   Release
| b   Bend
| ~   Vibrato
| p   Pull-off
| /   Slide up
| tr  Trill

************************************

Almost there ...

Sign in to get your own page with links to favourite songs and more. You are just one click away...

Login with Facebook Login with Google