Log in

One click and you are in

Login with Facebook Login with Google

Why sign up and log in

Guitar Tabs Explorer
Social Distortion bass tabs for Bad luck

Bass tabs

  • Tuning: Half-Step Down
  • Difficulty: Beginner
Track 2 from Somewhere Between Heaven and Hell - Bad Luck


Tuning - Half Step Down (Standard)

        Intro
Gb |-------------|----------------------|
Db |--5--7~~~~---|--7~~--7~~---7--7--7--|
Ab |-------------|----------------------|
Eb |-------------|----------------------|

Gb |--------------|--------------|---------------------------|
Db |--------------|--------------|---------------------------| x6
Ab |--------------|--5--5--5--5--|---------------------------|
Eb |--3--3--3--3--|--------------|--5--5--5--5--5--5--5--5---|
              Verse
Gb |--------------|--------------|---------------------------|
Db |--------------|--------------|---------------------------| x8
Ab |--------------|--5--5--5--5--|---------------------------|
Eb |--3--3--3--3--|--------------|--5--5--5--5--5--5--5--5---|


              Chorus
Gb |--------------|--------------|---------------------------|
Db |--------------|--------------|---------------------------| x4
Ab |--------------|--5--5--5--5--|---------------------------|
Eb |--3--3--3--3--|--------------|--5--5--5--5--5--5--5--5---|


             Verse II
Gb |--------------|--------------|---------------------------|
Db |--------------|--------------|---------------------------| x8
Ab |--------------|--5--5--5--5--|---------------------------|
Eb |--3--3--3--3--|--------------|--5--5--5--5--5--5--5--5---|

             Chorus II
Gb |--------------|--------------|---------------------------|
Db |--------------|--------------|---------------------------| x4
Ab |--------------|--5--5--5--5--|---------------------------|
Eb |--3--3--3--3--|--------------|--5--5--5--5--5--5--5--5---|


             Bridge
Gb |--------------|--------------|---------------------------|
Db |--------------|--------------|---------------------------| x14
Ab |--------------|--5--5--5--5--|---------------------------|
Eb |--3--3--3--3--|--------------|--5--5--5--5--5--5--5--5---|


             Verse III
Gb |--------------|--------------|---------------------------|
Db |--------------|--------------|---------------------------| x8
Ab |--------------|--5--5--5--5--|---------------------------|
Eb |--3--3--3--3--|--------------|--5--5--5--5--5--5--5--5---|


            Chorus III
Gb |--------------|--------------|---------------------------|
Db |--------------|--------------|---------------------------| x8
Ab |--------------|--5--5--5--5--|---------------------------|
Eb |--3--3--3--3--|--------------|--5--5--5--5--5--5--5--5---|


             Outro
Gb |--------------|--------------|---------------------------|
Db |--------------|--------------|---------------------------| x3
Ab |--------------|--5--5--5--5--|---------------------------|
Eb |--3--3--3--3--|--------------|--5--5--5--5--5--5--5--5---|

Gb |-----------------------------|
Db |-----------------------------|
Ab |--------5~~---5~~------------|
Eb |--3~~---------------5~~~~~~--|

Almost there ...

Sign in to get your own page with links to favourite songs and more. You are just one click away...

Login with Facebook Login with Google