Log in

One click and you are in

Login with Facebook Login with Google

Why sign up and log in

Guitar Tabs Explorer
Snoop Dogg bass tabs for Santa claus goes straight to the ghetto

Santa Claus Goes Straight To The Ghetto bass tab by Snoop Dogg

Snoop Dogg bass tabs for Santa claus goes straight to the ghetto

Bass tabs

Intro:
G|-------|
D|-------|
A|-------|
E|-15/-1-|

Main lick:
G|---------------------|
D|---------------------|
A|-------------8--6--8-|
E|-1----6\--8~---------|

Turn around:
G|---------------------------------------------------------------|
D|----------1---3---1-------1------------------------------------|
A|------3---------------3-------3---1----------------------------|
E|--1------------------------------------4-----------------------|

Turn around octave:

G|---------------------------------------------------------------|
D|----------13---15---13-------13--------------------------------|
A|------15---------------15-------15---13------------------------|
E|--1---------------------------------------16-------------------|


************************************

| / Slide up
| \ Slide down
| ~ Vibrato

Almost there ...

Sign in to get your own page with links to favourite songs and more. You are just one click away...

Login with Facebook Login with Google