Log in

One click and you are in

Login with Facebook Login with Google

Why sign up and log in

Guitar Tabs Explorer
Snoop Dogg bass tabs for Big subwoofer

Bass tabs

Main Theme [Verse 1}

G|-------------------------------------------|
D|-------------------------------------------|
A|---4--------6-----------7------------------|
E|------------------------------------8------|

G|-------------------------------------------|
D|-------------------------------------------|
A|---4--------6-----------7------------------|
E|------------------------------------8------|

G|-------------------------------------------|
D|-------------------------------------------|
A|---4--------6-----------7------------------|
E|------------------------------------8------|

G|-------------------------------------------|
D|-------------------------------------------|
A|---4--------6-----------7------------------|
E|------------------------------------8------|

G|-------------------------------------------|
D|-------------------------------------------|
A|---4--------6-----------7------------------|
E|------------------------------------8------|


G|-------------------------------------------|
D|-------------------------------------------|
A|---4--------6-----------7------------------|
E|------------------------------------8------|

G|-------------------------------------------|
D|-------------------------------------------|
A|---4--------6-----------7------------------|
E|------------------------------------8------|

G|-------------------------------------------|
D|-------------------------------------------|
A|---4--------6-----------7------------------|
E|------------------------------------8------|

G|-------------------------------------------|
D|-------------------------------------------|
A|---4--------6-----------7------------------|
E|------------------------------------8------|


Chorus:

G|-------------------------------------------|
D|-------------------------------------------|
A|---4--------6-----------7------------------|
E|------------------------------------8------|

Almost there ...

Sign in to get your own page with links to favourite songs and more. You are just one click away...

Login with Facebook Login with Google