Guitar Tabs Explorer
Smokie guitar tabs for Oh carol

Oh Carol tab


5 / 5 [5 votes]


Lenom5Author: Lenom5

Oh Carol tab by Smokie (Solo)

Tabs to the classic Oh Carol guitar solo by Smokie.

Guitar tabs

Print
  • Tuning: Standard tuning
-------------------------------------------------------------------------------
                            Oh Carol- solo - Smokie
-------------------------------------------------------------------------------
Tabbed by: Lenom Jon

Tuning: Standard tuning


e|---------------------------------------------------------------------------|
B|-------15----12---------------------------12-11-10~------------------------|
G|---14b----14b-14b-14-12~---------------------------------------------------|
D|--------------------------------10-11-12-----------------------------------|
A|---------------------------------------------------------------------------|
E|---------------------------------------------------------------------------|


e|---------------------------------------------8-7--6--5---------------------|
B|---------------13----------13---------------10-9--8--7-----8~--------------|
G|---11-12-13-14-------11-14-------------------------------------------------|
D|------------------------------12-------------------------------------------|
A|---------------------------------------------------------------------------|
E|---------------------------------------------------------------------------|


e|---12/15-15-15-12-------12/15-15-15-12-------------------------------------|
B|------------------15--------------------15---------------------------------|
G|--------------------12~-------------------14~------------------------------|
D|---------------------------------------------------------------------------|
A|---------------------------------------------------------------------------|
E|---------------------------------------------------------------------------|


e|---------------------------13-12-10--------12/15-15-15-12------------------|
B|---------13-12---------------------------------------------15--------------|
G|---10h11-------10---11h12--------------------------------------12~---------|
D|---------------------------------------------------------------------------|
A|---------------------------------------------------------------------------|
E|---------------------------------------------------------------------------|



************************************

| /   slide up
| \   slide down
| h   hammer-on
| p   pull-off
| ~   vibrato
| +   harmonic
| x   Mute note
| b   Bend
| pb  Pre-bend
| br  Bend release
| pbr Pre-bend release
| brb Bend release bend

************************************

Comment this song and these guitar tabs

Do you have corrections, comments on the guitar tabs, thoughts about the song or a message to the author? Write them below.