I Second That Emotion  by Smokey Robinson And The Miracles

I Second That Emotion tab by Smokey Robinson And The Miracles (Ver. 2)

Guitar tabs

Difficulty: 0

I SECOND THAT EMOTION

As recorded by Smokey Robinson & The Miracles
(Released as a Single in 1967)

Words and Music by William "Smokey" Robinson & Alfred Cleveland

Transcribed by Slowhand


Gtr I (E A D G B E) - 'Eddie Willis - Electric Guitar'
Gtr II (E A D G B E) - 'Robert White - Electric Guitar'
Gtr III (E A D G B E) - 'Eddie Willis - Electric Guitar'


 Intro
 Q=95(16=s16)
 A       G                 D
 4/4
 Gtr I
  S E S +Q  S E S +Q   +W        Q   Q   Q    Q
|--9--9--9--(9)--7-7-7-(7)--|-(7)------------|------10-------------10--------|
|-10-10-10-(10)--8-8-8-(8)--|-(8)------------|------10-------------10--------|
|--9--9--9--(9)--7-7-7-(7)--|-(7)------------|------11-------------11--------|
|---------------------------|----------------|-------------------------------|
|---------------------------|----------------|-------------------------------|
|---------------------------|----------------|-------------------------------|
|


| Gtr II
|               TP    TP
| S E S +Q  S E S +Q   H.   +E E  E. S E S S S S S S +S S S S
|---------------------------|----------------|-------------------------------|
|---------------------------|----------------|-------------------------------|
|--9--9--9--(9)--7-7-7-(7)--|--7-------(7)---|-7-----7-7---7-7---7-(7)---7---|
|-11-11-11-(11)--9-9-9-(9)--|--9-------(9)---|-7--9--7-7-9-7---9-7-(7)-9-7-9-|
|---------------------------|----------------|-------------------------------|
|---------------------------|----------------|-------------------------------|


|
| Gtr III
| W              W        W
|---------------------------|----------------|-------------------------------|
|---------------------------|----------------|-7-----------------------------|
|---------------------------|----------------|-7-----------------------------|
|---------------------------|----------------|-7-----------------------------|
|---------------------------|----------------|-------------------------------|
|---------------------------|----------------|-------------------------------|



                 1st & 2nd Verses
                $
                     D
  Q   Q   Q    Q      Q   Q   Q    Q
|--------10-------------10------||--------10-------------10--------|
|--------10-------------10------||--------10-------------10--------|
|--------11-------------11------||--------11-------------11--------|
|-------------------------------||---------------------------------|
|-------------------------------||---------------------------------|
|-------------------------------||---------------------------------|
|
|  E. S E S S S S S S +S S E   E. S E S S S S S S +S S S S
|-------------------------------||---------------------------------|
|-------------------------------||---------------------------------|
|---7-----7-7---7-7---7-(7)---7-||---7-----7-7---7-7---7-(7)---7---|
|---7--9--7-7-9-7---9-7-(7)-9-7-||---7--9--7-7-9-7---9-7-(7)-9-7-9-|
|-------------------------------||---------------------------------|
|-------------------------------||---------------------------------|
|
| a W               a W
|-------------------------------||---------------------------------|
|-6s7---------------------------||-6s7-----------------------------|
|-6s7---------------------------||-6s7-----------------------------|
|-6s7---------------------------||-6s7-----------------------------|
|-------------------------------||---------------------------------|
|-------------------------------||---------------------------------|




  Q   Q   Q    Q
|--------10--------------10-------|
|--------10--------------10-------|
|--------11--------------11-------|
|---------------------------------|
|---------------------------------|
|---------------------------------|
|
|  E. S E S S S S S S +S S E
|---------------------------------|
|---------------------------------|
|---7-----7-7----7-7---7-(7)---7--|
|---7--9--7-7-9--7---9-7-(7)-9-7--|
|---------------------------------|
|---------------------------------|
|
| a H      E  S S E  E
|---------------------------------|
|-6s7-----------------------------|
|-6s7----------------7----7-------|
|-6s7-----------/9-----9-------9--|
|---------------------------------|
|---------------------------------|



  Q   Q   Q    Q
|--------10-------------10--------|
|--------10-------------10--------|
|--------11-------------11--------|
|---------------------------------|
|---------------------------------|
|---------------------------------|
|
|  E. S E S S S S S S +S S S S
|---------------------------------|
|---------------------------------|
|---7-----7-7---7-7---7-(7)---7---|
|---7--9--7-7-9-7---9-7-(7)-9-7-9-|
|---------------------------------|
|---------------------------------|
|
| a W
|---------------------------------|
|-6s7-----------------------------|
|-6s7-----------------------------|
|-6s7-----------------------------|
|---------------------------------|
|---------------------------------|



  Q   Q   Q    Q     Q   Q   Q    Q
|--------10--------------10------|--------10-------------10--------|
|--------10--------------10------|--------10-------------10--------|
|--------11--------------11------|--------11-------------11--------|
|--------------------------------|---------------------------------|
|--------------------------------|---------------------------------|
|--------------------------------|---------------------------------|
|
|  E. S E S S S S S S +S S E   E. S E S S S S S S +S S S S
|--------------------------------|---------------------------------|
|--------------------------------|---------------------------------|
|---7-----7-7----7-7---7-(7)---7-|---7-----7-7---7-7---7-(7)---7---|
|---7--9--7-7-9--7---9-7-(7)-9-7-|---7--9--7-7-9-7---9-7-(7)-9-7-9-|
|--------------------------------|---------------------------------|
|--------------------------------|---------------------------------|
|
| a H      E  S S E  E  a W
|--------------------------------|---------------------------------|
|-6s7----------------------------|-6s7-----------------------------|
|-6s7----------------7----7------|-6s7-----------------------------|
|-6s7-----------/9-----9-------9-|-6s7-----------------------------|
|--------------------------------|---------------------------------|
|--------------------------------|---------------------------------|



             To Coda
                  G      A
  Q   Q   Q    Q     S E S +Q   S E S +Q
|--------10--------------10-------|-7-7-7-(7)-----9--9--9--(9)-----|
|--------10--------------10-------|-8-8-8-(8)----10-10-10-(10)-----|
|--------11--------------11-------|-7-7-7-(7)-----9--9--9--(9)-----|
|---------------------------------|--------------------------------|
|---------------------------------|--------------------------------|
|---------------------------------|--------------------------------|
|
|  E. S E S S S S S S +S S E  S E S +Q   S E S +Q
|---------------------------------|-7-7-7-(7)-----9--9--9--(9)-----|
|---------------------------------|-8-8-8-(8)----10-10-10-(10)-----|
|---7-----7-7----7-7---7-(7)---7--|-7-7-7-(7)-----9--9--9--(9)-----|
|---7--9--7-7-9--7---9-7-(7)-9-7--|-9-9-9-(9)----11-11-11-(11)-----|
|---------------------------------|--------------------------------|
|---------------------------------|--------------------------------|
|
| a H      E  S S E  E  Q   E  E Q     E  E
|---------------------------------|--------------------------------|
|-6s7-----------------------------|--------------------------------|
|-6s7----------------7----7-------|-----------/7----------------/9-|
|-6s7-----------/9-----9-------9--|-----------/9---------------/11-|
|---------------------------------|--------------------------------|
|---------------------------------|--------------------------------|



     D
  Q   Q   Q    Q
|--------10--------------10--------||
|--------10--------------10--------||
|--------11--------------11--------||
|----------------------------------||
|----------------------------------||
|----------------------------------||
|
|  E. S E S S S S S S +S S E
|----------------------------------||
|----------------------------------||
|---7-----7-7----7-7---7-(7)---7---||
|---7--9--7-7-9--7---9-7-(7)-9-7---||
|----------------------------------||
|----------------------------------||
|
| a H      E  S S E  E
|----------------------------------||
|-6s7------------------------------||
|-6s7----------------7----7--------||
|-6s7-----------/9-----9-------9---||
|----------------------------------||
|----------------------------------||



 Bridge
    G              D
 Q   Q    Q  Q     Q   Q    Q   Q
|-------7------------7-------|------10--------------10--------|
|-------8------------8-------|------10--------------10--------|
|-------7------------7-------|------11--------------11--------|
|----------------------------|--------------------------------|
|----------------------------|--------------------------------|
|----------------------------|--------------------------------|
|
| E. S S S S S E. S S S S S  E. S S S S S E S S +S S S S
|----------------------------|--------------------------------|
|-8--8--8---8---8--8-8---8---|--------------------------------|
|-7--7--7---7---7--7-7---7---|-7-----7---7----7---7-(7)---7---|
|-9-------9---9-9------9---9-|-7--9--7-9-7-9--7-9-7-(7)-9-7-9-|
|----------------------------|--------------------------------|
|----------------------------|--------------------------------|
|
| Q   E  E  Q  Q     H       E S S E  E
|----------------------------|--------------------------------|
|------/8-------8------------|-7------------------------------|
|------/9---7---7----7-------|-7----------------7----7--------|
|---------------9----9-------|-7-------------/9---9-------9---|
|----------------------------|--------------------------------|
|----------------------------|--------------------------------|



    G
  Q  Q     Q    Q
|-------7-----------------7-------|
|-------8-----------------8-------|
|-------7-----------------7-------|
|---------------------------------|
|---------------------------------|
|---------------------------------|
|
| E. S S S  S S E.  S S S S S
|---------------------------------|
|--8--8-8-----8---8----8--8---8---|
|--7--7-7-----7---7----7--7---7---|
|--9------9-----9-9---------9---9-|
|---------------------------------|
|---------------------------------|
|
| Q.    a E  E E  E  e
|---------------------------------|
|-------------8-------------------|
|-----------7h9---7-----------7---|
|--9-----------------9--------9---|
|-10---------------------10-------|
|---------------------------------|


            Chorus
 D                D
  Q   Q   H     Q     Q   Q   Q
|-10----10-----10----||------------10----------10-------|
|-10----10-----10----||------------10----------10-------|
|-11----11-----11----||------------11----------11-------|
|--------------------||---------------------------------|
|--------------------||---------------------------------|
|--------------------||---------------------------------|
|
| E. S S S E H     E.   S S S E E. S S S S S
|--------------------||---------------------------------|
|---------------7----||---------------------------------|
|--7-----7---7--7----||---7---------7---7-7-----7---7---|
|--7--9--7-9-7--7----||---7------9--7-9-7-7--9--7-9-7-9-|
|--------------------||---------------------------------|
|--------------------||---------------------------------|
|
| Q.    E H    a E a E  S S E H
|--------------------||---5----5------------------------|
|---------------7----||-5h7--5h7----5-------------------|
|--7------------7----||---------------7-4-7-------------|
|--7------------7----||-------------------7-------------|
|--------------------||---------------------------------|
|--------------------||---------------------------------|


 A        G
  S E S +Q   S E S +Q
|--9--9--9--(9)----7-7-7-(7)-----|
|-10-10-10-(10)----8-8-8-(8)-----|
|--9--9--9--(9)----7-7-7-(7)-----|
|--------------------------------|
|--------------------------------|
|--------------------------------|
|
| S E S +Q   S E S +Q
|--------------------------------|
|-10-10-10-(10)----8-8-8-(8)-----|
|--9--9--9--(9)----7-7-7-(7)-----|
|-11-11-11-(11)----9-9-9-(9)-----|
|--------------------------------|
|--------------------------------|
|
| Q     E  E Q   E  E
|--------------------------------|
|---------------/5-----------/3--|
|---------------/6-----------/4--|
|--------------------------------|
|--------------------------------|
|--------------------------------|


 Q   Q    Q    Q
|--------7-----------------7-------|
|--------8-----------------8-------|
|--------7-----------------7-------|
|----------------------------------|
|----------------------------------|
|----------------------------------|
|
| E S S S S S S E  S S S S S S
|----------------------------------|
|-8------8----8---8--------8---8---|
|-7------7----7---7--------7---7---|
|-9-9-9-----9---9-9----9-9---9---9-|
|----------------------------------|
|----------------------------------|
|
| Q   +E  S S E a E  E  E
|----------------------------------|
|-0-----(0)---8-8-8\-3h5---3---3---|
|-0-----(0)---7-7-7\---4---4---4---|
|------------------------------5---|
|----------------------------------|
|----------------------------------|


    D
 Q   Q   E E +Q    Q     Q   Q   Q
|------10-------10-(10)--|------------10----------10--------|
|------10-------10-(10)--|------------10----------10--------|
|------11-------11-(11)--|------------11----------11--------|
|------------------------|----------------------------------|
|------------------------|----------------------------------|
|------------------------|----------------------------------|
|
| E. S S S E E E +Q    E.   S S S E E. S S S S S
|------------------------|----------------------------------|
|----------------7--(7)--|----------------------------------|
|-7-----7---7----7--(7)--|---7---------7---7-7-----7---7----|
|-7--9--7-9-7----7--(7)--|---7------9--7-9-7-7--9--7-9-7-9--|
|------------------------|----------------------------------|
|------------------------|----------------------------------|
|
| H      E E +Q   a E a E  S S E H
|----------------2--(2)--|---5----5-------------------------|
|-3--------------3--(3)--|-5h7--5h7----5--------------------|
|-2--------------2--(2)--|---------------7-4-7--------------|
|-4--------------4--(4)--|-------------------7--------------|
|------------------------|----------------------------------|
|------------------------|----------------------------------|


 A        G
  S E S +Q   S E S +Q
|--9--9--9--(9)----7-7-7-(7)----|
|-10-10-10-(10)----8-8-8-(8)----|
|--9--9--9--(9)----7-7-7-(7)----|
|-------------------------------|
|-------------------------------|
|-------------------------------|
|
| S E S +Q   S E S +Q
|-------------------------------|
|-10-10-10-(10)----8-8-8-(8)----|
|--9--9--9--(9)----7-7-7-(7)----|
|-11-11-11-(11)----9-9-9-(9)----|
|-------------------------------|
|-------------------------------|
|
| Q     E  E Q   E  E
|-------------------------------|
|---------------/5-----------/3-|
|---------------/6-----------/4-|
|-------------------------------|
|-------------------------------|
|-------------------------------|


                     D
  Q   Q     Q    Q   Q   Q    Q   Q
|---------7------------------7----|------10-------------10-------|
|---------8------------------8----|------10-------------10-------|
|---------7------------------7----|------11-------------11-------|
|---------------------------------|------------------------------|
|---------------------------------|------------------------------|
|---------------------------------|------------------------------|
|
| E S S S E   S E S S +E E  E. S S S S S E S S +S S E
|---------------------------------|------------------------------|
|--8--8-8-8-8--------8--8-8-(8)---|------------------------------|
|--7--7-7-7-7--------7--7-7-(7)---|-7-----7---7---7---7-(7)---7--|
|--9------9-9-----9--9--9-9-(9)-9-|-7--9--7-9-7-9-7-9-7-(7)-9-7--|
|---------------------------------|------------------------------|
|---------------------------------|------------------------------|
|
| +Q   S S S a S +E E  E E  W
|---------3-3-----3-(3)-3---------|-2----------------------------|
|-(3)-----3-3---3h5-(5)-3----3--3-|-3----------------------------|
|-(4)------------------------4--4-|-2----------------------------|
|-------------------------------5-|-4----------------------------|
|---------------------------------|------------------------------|
|---------------------------------|------------------------------|


          D.S. al Coda &
 A        G
  S E S +Q   S E S +Q
|--9--9--9--(9)----7-7-7-(7)-----||
|-10-10-10-(10)----8-8-8-(8)-----||
|--9--9--9--(9)----7-7-7-(7)-----||
|--------------------------------||
|--------------------------------||
|--------------------------------||
|
| S E S +Q   S E S +Q
|--------------------------------||
|-10-10-10-(10)----8-8-8-(8)-----||
|--9--9--9--(9)----7-7-7-(7)-----||
|-11-11-11-(11)----9-9-9-(9)-----||
|--------------------------------||
|--------------------------------||
|
| Q     E  E Q   E  E
|--------------------------------||
|---------------/5-----------/3--||
|---------------/6-----------/4--||
|--------------------------------||
|--------------------------------||
|--------------------------------||


 G     A            D
 S E S +Q  S E S +Q    Q   Q   Q    Q
|-7-7-7-(7)---9--9--9--(9)--|--------10--------------10------||
|-8-8-8-(8)--10-10-10-(10)--|--------10--------------10------||
|-7-7-7-(7)---9--9--9--(9)--|--------11--------------11------||
|---------------------------|--------------------------------||
|---------------------------|--------------------------------||
|---------------------------|--------------------------------||
|
| S E S +Q  S E S +Q    E. S E S S S S S S +S S E
|-7-7-7-(7)---9--9--9--(9)--|--------------------------------||
|-8-8-8-(8)--10-10-10-(10)--|--------------------------------||
|-7-7-7-(7)---9--9--9--(9)--|---7-----7-7----7-7---7-(7)---7-||
|-9-9-9-(9)--11-11-11-(11)--|---7--9--7-7-9--7---9-7-(7)-9-7-||
|---------------------------|--------------------------------||
|---------------------------|--------------------------------||
|
| H      Q     Q   a H      E  S S E  E
|---------------------------|--------------------------------||
|---------------------------|-6s7----------------------------||
|----------------------/9---|-6s7----------------7----7------||
|---------------------/11---|-6s7-----------/9-----9-------9-||
|---------------------------|--------------------------------||
|---------------------------|--------------------------------||


 Bridge
    G
 Q  Q    Q    Q
|------7---------------7--------|
|------8---------------8--------|
|------7---------------7--------|
|-------------------------------|
|-------------------------------|
|-------------------------------|
|
| E. S S S S S E.  S S S S S
|-------------------------------|
|-8--8-8---8---8----8--8----8---|
|-7--7-7---7---7----7--7----7---|
|-9------9---9-9----------9---9-|
|-------------------------------|
|-------------------------------|
|
| Q  Q    E E  Q
|------3------------------------|
|------5-------3--3---(3)-------|
|-----------------4---(4)-------|
|----------------------5--------|
|-------------------------------|
|-------------------------------|


     D                G
  Q   Q    Q   Q     Q  Q     Q   Q
|--------10--------------10--------|------7----------------7-------|
|--------10--------------10--------|------8----------------8-------|
|--------11--------------11--------|------7----------------7-------|
|----------------------------------|-------------------------------|
|----------------------------------|-------------------------------|
|----------------------------------|-------------------------------|
|
|  E. S S S S S E S S +S S S S  E. S S S  S S E.  S S S S S
|----------------------------------|-------------------------------|
|----------------------------------|-8--8-8-----8---8----8-8---8---|
|---7-----7---7----7---7-(7)---7---|-7--7-7-----7---7----7-7---7---|
|---7--9--7-9-7-9--7-9-7-(7)-9-7-9-|-9------9-----9-9--------9---9-|
|----------------------------------|-------------------------------|
|----------------------------------|-------------------------------|
|
| a H       E S S E  E   Q.    a E  E E  E  E
|----------------------------------|------------3---3--3-----------|
|-6s7------------------------------|----------3h5---5--3---3---3---|
|-6s7----------------7----7--------|-7---------------------4---4---|
|-6s7-------------/9---9-------9---|-7-------------------------5---|
|----------------------------------|-------------------------------|
|----------------------------------|-------------------------------|


            Chorus
 D                D
  Q   Q   H     Q     Q   Q   Q
|-10----10-----10----||------------10----------10-------|
|-10----10-----10----||------------10----------10-------|
|-11----11-----11----||------------11----------11-------|
|--------------------||---------------------------------|
|--------------------||---------------------------------|
|--------------------||---------------------------------|
|
| E. S S S E H     E.   S S S E E. S S S S S
|--------------------||---------------------------------|
|---------------7----||---------------------------------|
|--7-----7---7--7----||---7---------7---7-7-----7---7---|
|--7--9--7-9-7--7----||---7------9--7-9-7-7--9--7-9-7-9-|
|--------------------||---------------------------------|
|--------------------||---------------------------------|
|
| Q.    E H    a E a E  S S E H
|---------------2----||---5----5------------------------|
|--3------------3----||-5h7--5h7----5-------------------|
|--2------------2----||---------------7-4-7-------------|
|--------------------||-------------------7-------------|
|--------------------||---------------------------------|
|--------------------||---------------------------------|


 A        G
  S E S +Q   S E S +Q
|--9--9--9--(9)----7-7-7-(7)-----|
|-10-10-10-(10)----8-8-8-(8)-----|
|--9--9--9--(9)----7-7-7-(7)-----|
|--------------------------------|
|--------------------------------|
|--------------------------------|
|
| S E S +Q   S E S +Q
|--------------------------------|
|-10-10-10-(10)----8-8-8-(8)-----|
|--9--9--9--(9)----7-7-7-(7)-----|
|-11-11-11-(11)----9-9-9-(9)-----|
|--------------------------------|
|--------------------------------|
|
| Q     E  E Q   E  E
|--------------------------------|
|---------------/5-----------/3--|
|---------------/6-----------/4--|
|--------------------------------|
|--------------------------------|
|--------------------------------|


                 D
 Q   Q     Q  Q   Q   Q   E E  +Q
|-------7--------------7---|------10-------10--(10)--|
|-------8--------------8---|------10-------10--(10)--|
|-------7--------------7---|------11-------11--(11)--|
|--------------------------|-------------------------|
|--------------------------|-------------------------|
|--------------------------|-------------------------|
|
| E S S S S  S S Q  Q   E. S S S E E E  +Q
|--------------------------|-------------------------|
|-8-----8------8---8-------|----------------7---(7)--|
|-7-----7------7---7---7---|-7-----7---7----7---(7)--|
|-9-9-9----9-----9-----9---|-7--9--7-9-7----7---(7)--|
|--------------------------|-------------------------|
|--------------------------|-------------------------|
|
| E S S E  a E  E E E E  H      E Q.
|------------------3-------|-2--------------2--------|
|---8-8-8\---3h5---3-3-3-3-|-3--------------3--------|
|---7-7-7\-----4-----5-4-4-|-2--------------2--------|
|------------------------5-|-4--------------4--------|
|--------------------------|-------------------------|
|--------------------------|-------------------------|


  Q     Q   Q    Q
|------------10------------10-------|
|------------10------------10-------|
|------------11------------11-------|
|-----------------------------------|
|-----------------------------------|
|-----------------------------------|
|
|  E.   S S S E E. S  S S S S
|-----------------------------------|
|-----------------------------------|
|---7---------7---7-7-------7---7---|
|---7------9--7-9-7-7--9----7-9-7-9-|
|-----------------------------------|
|-----------------------------------|
|
| a E a E  S S E E. S a Q
|---5----5--------------------------|
|-5h7--5h7----5---------------------|
|---------------7-4-5--5-6s=7-------|
|------------------------6s=7-------|
|-----------------------------------|
|-----------------------------------|


 A        G
  S E S +Q   S E S +Q
|--9--9--9--(9)----7-7-7-(7)----|
|-10-10-10-(10)----8-8-8-(8)----|
|--9--9--9--(9)----7-7-7-(7)----|
|-------------------------------|
|-------------------------------|
|-------------------------------|
|
| S E S +Q   S E S +Q
|-------------------------------|
|-10-10-10-(10)----8-8-8-(8)----|
|--9--9--9--(9)----7-7-7-(7)----|
|-11-11-11-(11)----9-9-9-(9)----|
|-------------------------------|
|-------------------------------|
|
| Q     E  E Q   E  E
|-------------------------------|
|---------------/5-----------/3-|
|---------------/6-----------/4-|
|-------------------------------|
|-------------------------------|
|-------------------------------|


                    D
 Q   Q     Q    Q   Q   Q    Q   Q
|-------7-------------------7----|------10-------------10--------|
|-------8-------------------8----|------10-------------10--------|
|-------7-------------------7----|------11-------------11--------|
|--------------------------------|-------------------------------|
|--------------------------------|-------------------------------|
|--------------------------------|-------------------------------|
|
| E S S S E  S  E S S +E E  E. S S S S S E S S +S S S S
|--------------------------------|-------------------------------|
|-8-8-8-8-8--------8--8--8-(8)---|-------------------------------|
|-7-7-7-7-7--------7--7--7-(7)---|-7-----7---7---7---7-(7)---7---|
|-9-----9-9----9---9--9--9-(9)-9-|-7--9--7-9-7-9-7-9-7-(7)-9-7-9-|
|--------------------------------|-------------------------------|
|--------------------------------|-------------------------------|
|
| Q   S S E  a E E   E E  Q.    E  H
|--------------------------------|-2-------------2---------------|
|-0-----8-8-8\---3h5p=3-----3--3-|-3-------------3---------------|
|-0-----7-7-7\-----4-(4)----4--4-|-2-------------2---------------|
|------------------------------5-|-4-------------4---------------|
|--------------------------------|-------------------------------|
|--------------------------------|-------------------------------|


 A        G
  S E S +Q   S E S +Q
|--9--9--9--(9)----7-7-7-(7)----||
|-10-10-10-(10)----8-8-8-(8)----||
|--9--9--9--(9)----7-7-7-(7)----||
|-------------------------------||
|-------------------------------||
|-------------------------------||
|
| S E S +Q   S E S +Q
|-------------------------------||
|-10-10-10-(10)----8-8-8-(8)----||
|--9--9--9--(9)----7-7-7-(7)----||
|-11-11-11-(11)----9-9-9-(9)----||
|-------------------------------||
|-------------------------------||
|
| Q     E  E Q   E  E
|-------------------------------||
|---------------/5-----------/3-||
|---------------/6-----------/4-||
|-------------------------------||
|-------------------------------||
|-------------------------------||


 Interlude
     D            A        G
 Q    Q   Q   Q     S E S +Q   S E S +Q
|--------10-----------10-------|--9--9--9--(9)----7-7-7-(7)----|
|--------10-----------10-------|-10-10-10-(10)----8-8-8-(8)----|
|--------11-----------11-------|--9--9--9--(9)----7-7-7-(7)----|
|------------------------------|-------------------------------|
|------------------------------|-------------------------------|
|------------------------------|-------------------------------|
|
| E.  S S S E E. S S S S S  S E S +Q   S E S +Q
|------------------------------|-------------------------------|
|------------------------------|-10-10-10-(10)----8-8-8-(8)----|
|-7-------7---7--7-----7---7---|--9--9--9--(9)----7-7-7-(7)----|
|-7----9--7-9-7--7--9--7-9-7-9-|-11-11-11-(11)----9-9-9-(9)----|
|------------------------------|-------------------------------|
|------------------------------|-------------------------------|
|
| E E  E  E +H        Q     E  E Q   E  E
|-------------2-(2)------------|-------------------------------|
|---------3--------------------|---------------/5-----------/3-|
|----2-------------------------|---------------/6-----------/4-|
|-4----------------------------|-------------------------------|
|------------------------------|-------------------------------|
|------------------------------|-------------------------------|


                  D
 Q   Q     Q  Q    Q   Q   Q    Q
|-------7--------------7---|--------10-------------10-------||
|-------8--------------8---|--------10-------------10-------||
|-------7--------------7---|--------11-------------11-------||
|--------------------------|--------------------------------||
|--------------------------|--------------------------------||
|--------------------------|--------------------------------||
|
| E S S S S  S S Q  Q    E. S S S E E.  S S S S S
|--------------------------|--------------------------------||
|-8-----8------8---8-------|--------------------------------||
|-7-----7------7---7---7---|---7-----7---7--7-------7---7---||
|-9-9-9----9-----9-----9---|---7--9--7-9-7--7----9--7-9-7-9-||
|--------------------------|--------------------------------||
|--------------------------|--------------------------------||
|
| E S S E  a E  E E E E  a H      E S S E  E
|--------------------------|--------------------------------||
|-0-8-8-8\---3h5---3-3-3-3-|-6s7----------------------------||
|-0-7-7-7\-----4---4-5-4-4-|-6s7---------------7----7-------||
|------------------------5-|-6s7-----------/9----9------9---||
|--------------------------|--------------------------------||
|--------------------------|--------------------------------||


 Bridge
    G
 Q  Q    Q   Q
|------7---------------7--------|
|------8---------------8--------|
|------7---------------7--------|
|-------------------------------|
|-------------------------------|
|-------------------------------|
|
| E. S S S S S E.  S S S S S
|-------------------------------|
|-8--8-8---8----8----8-8---8----|
|-7--7-7---7----7----7-7---7----|
|-9------9---9--9--------9---9--|
|-------------------------------|
|-------------------------------|
|
| H       E E  E  E
|--------------/3--3---3--------|
|-8------------/5--3---3---3----|
|-7--------------------4---4----|
|-9------------------------5----|
|-------------------------------|
|-------------------------------|


     D
  Q   Q    Q   Q
|--------10--------------10--------|
|--------10--------------10--------|
|--------11--------------11--------|
|----------------------------------|
|----------------------------------|
|----------------------------------|
|
|  E. S S S S S E S S +S S S S
|----------------------------------|
|----------------------------------|
|---7-----7---7----7---7-(7)---7---|
|---7--9--7-9-7-9--7-9-7-(7)-9-7-9-|
|----------------------------------|
|----------------------------------|
|
| a H       E S S E  E
|----------------------------------|
|-6s7------------------------------|
|-6s7----------------7----7--------|
|-6s7-------------/9---9-------9---|
|----------------------------------|
|----------------------------------|


    G               D
  Q   Q    Q   Q     Q   Q   Q  Q
|--------7--------------7-------|------10--------10--||
|--------8--------------8-------|------10--------10--||
|--------7--------------7-------|------11--------11--||
|-------------------------------|--------------------||
|-------------------------------|--------------------||
|-------------------------------|--------------------||
|
| E. S S S S S E.  S S S S S  E. S S S E H
|-------------------------------|--------------------||
|--8--8--8---8---8----8-8---8---|-------------7------||
|--7--7--7---7---7----7-7---7---|-7-----7---7-7------||
|--9-------9---9-9--------9---9-|-7--9--7-9-7-7------||
|-------------------------------|--------------------||
|-------------------------------|--------------------||
|
| Q   Q    E E  E  E   Q.    E H
|-------/3-------3--------------|-2-----------2------||
|-------/5-------3--3-------3---|-3-----------3------||
|-/7----------------4---4---4---|-2-----------2------||
|-/7--------------------5-------|-4-----------4------||
|-------------------------------|--------------------||
|-------------------------------|--------------------||


 Chorus
       D
  Q     Q   Q   Q
|------------10----------10-------|
|------------10----------10-------|
|------------11----------11-------|
|---------------------------------|
|---------------------------------|
|---------------------------------|
|
|  E.   S S S E E. S S S S S
|---------------------------------|
|---------------------------------|
|---7---------7---7-7-----7---7---|
|---7------9--7-9-7-7--9--7-9-7-9-|
|---------------------------------|
|---------------------------------|
|
| a E a E  S S E H
|---5----5------------------------|
|-5h7--5h7----5-------------------|
|---------------7-4-7-------------|
|-------------------7-------------|
|---------------------------------|
|---------------------------------|


 A        G
  S E S +Q   S E S +Q    Q   Q     Q  Q
|--9--9--9--(9)----7-7-7-(7)----|-------7--------------7---|
|-10-10-10-(10)----8-8-8-(8)----|-------8--------------8---|
|--9--9--9--(9)----7-7-7-(7)----|-------7--------------7---|
|-------------------------------|--------------------------|
|-------------------------------|--------------------------|
|-------------------------------|--------------------------|
|
| S E S +Q   S E S +Q    E S S S S S S  Q  Q
|-------------------------------|--------------------------|
|-10-10-10-(10)----8-8-8-(8)----|-8-----8---8------8-------|
|--9--9--9--(9)----7-7-7-(7)----|-7-----7---7------7---7---|
|-11-11-11-(11)----9-9-9-(9)----|-9-9-9---9----9-------9---|
|-------------------------------|--------------------------|
|-------------------------------|--------------------------|
|
| Q     E  E Q   E  E  Q   S S E  a E E E E
|-------------------------------|------------------3-3-----|
|---------------/5-----------/3-|-------8-8-8\---3h5-3-3-3-|
|---------------/6-----------/4-|-------7-7-7\---------5-4-|
|-------------------------------|------------------------5-|
|-------------------------------|--------------------------|
|-------------------------------|--------------------------|


    D
 Q   Q   E E +Q    Q     Q   Q    Q
|------10-------10-(10)--|------------10------------10-------|
|------10-------10-(10)--|------------10------------10-------|
|------11-------11-(11)--|------------11------------11-------|
|------------------------|-----------------------------------|
|------------------------|-----------------------------------|
|------------------------|-----------------------------------|
|
| E. S S S E E E +Q    E.   S S S E E.  S S S S S
|------------------------|-----------------------------------|
|----------------7--(7)--|-----------------------------------|
|-7-----7---7----7--(7)--|---7---------7---7-7-------7---7---|
|-7--9--7-9-7----7--(7)--|---7------9--7-9-7-7----9--7-9-7-9-|
|------------------------|-----------------------------------|
|------------------------|-----------------------------------|
|
| H      E E +Q   a E a E  S S E E E  Q
|----------------2--(2)--|---5----5--------------------------|
|-3--------------3--(3)--|-5h7--5h7----5-------------7-------|
|-2--------------2--(2)--|---------------7------7------------|
|-4--------------4--(4)--|-----------------7-7---------------|
|------------------------|-----------------------------------|
|------------------------|-----------------------------------|


 A        G
  S E S +Q   S E S +Q
|--9--9--9--(9)----7-7-7-(7)----|
|-10-10-10-(10)----8-8-8-(8)----|
|--9--9--9--(9)----7-7-7-(7)----|
|-------------------------------|
|-------------------------------|
|-------------------------------|
|
| S E S +Q   S E S +Q
|-------------------------------|
|-10-10-10-(10)----8-8-8-(8)----|
|--9--9--9--(9)----7-7-7-(7)----|
|-11-11-11-(11)----9-9-9-(9)----|
|-------------------------------|
|-------------------------------|
|
| Q     E  E Q   E  E
|-------------------------------|
|---------------/5-----------/3-|
|---------------/6-----------/4-|
|-------------------------------|
|-------------------------------|
|-------------------------------|


                   D
 Q   Q    Q     Q   Q   Q    Q   Q
|-------7-----------------7----|------10-------------10------|
|-------8-----------------8----|------10-------------10------|
|-------7-----------------7----|------11-------------11------|
|------------------------------|-----------------------------|
|------------------------------|-----------------------------|
|------------------------------|-----------------------------|
|
| E S S S E  S E  S S +E E  E. S S S S S E S S +S S E
|------------------------------|-----------------------------|
|-8-8-8-8-8-----8----8-8-(8)---|-----------------------------|
|-7-7-7-7-7-----7----7-7-(7)---|-7-----7---7---7---7-(7)---7-|
|-9-----9-9---9-9----9-9-(9)-9-|-7--9--7-9-7-9-7-9-7-(7)-9-7-|
|------------------------------|-----------------------------|
|------------------------------|-----------------------------|
|
| Q   S S E  E a E  E E  W
|------------------------------|-2---------------------------|
|-0-----8-8-8---8\-3h5----3--3-|-3---------------------------|
|-0-----7-7-7---7\---4----4--4-|-2---------------------------|
|----------------------------5-|-4---------------------------|
|------------------------------|-----------------------------|
|------------------------------|-----------------------------|


 A        G
  S E S +Q   S E S +Q
|--9--9--9--(9)----7-7-7-(7)-----|
|-10-10-10-(10)----8-8-8-(8)-----|
|--9--9--9--(9)----7-7-7-(7)-----|
|--------------------------------|
|--------------------------------|
|--------------------------------|
|
| S E S +Q   S E S +Q
|--------------------------------|
|-10-10-10-(10)----8-8-8-(8)-----|
|--9--9--9--(9)----7-7-7-(7)-----|
|-11-11-11-(11)----9-9-9-(9)-----|
|--------------------------------|
|--------------------------------|
|
| Q     E  E Q   E  E
|--------------------------------|
|---------------/5-----------/3--|
|---------------/6-----------/4--|
|--------------------------------|
|--------------------------------|
|--------------------------------|


      D
 Q     Q   Q   Q
|----------10-----------10-------|
|----------10-----------10-------|
|----------11-----------11-------|
|--------------------------------|
|--------------------------------|
|--------------------------------|
|
| E.   S S S E E. S S S S S
|--------------------------------|
|--------------------------------|
|-7---------7----7-7-----7---7---|
|-7------9--7--9-7-7--9--7-9-7-9-|
|--------------------------------|
|--------------------------------|
|
| E a E  +H.
|------5---(5)-------------------|
|----5h7---(7)-------------------|
|--------------------------------|
|--------------------------------|
|--------------------------------|
|--------------------------------|


 A        G            D
  S E S +Q   S E S +Q    Q     Q   H
|--9--9--9--(9)----7-7-7-(7)----|----------10-------------*|
|-10-10-10-(10)----8-8-8-(8)----|----------10-------------*|
|--9--9--9--(9)----7-7-7-(7)----|----------11-------------*|
|-------------------------------|-------------------------*|
|-------------------------------|-------------------------*|
|-------------------------------|-------------------------*|
|
| S E S +Q   S E S +Q    E.   S S S E E E Q
|-------------------------------|-------------------------*|
|-10-10-10-(10)----8-8-8-(8)----|-------------------------*|
|--9--9--9--(9)----7-7-7-(7)----|-7---------7----7-7------*|
|-11-11-11-(11)----9-9-9-(9)----|-7------9--7--9-7-7------*|
|-------------------------------|-------------------------*|
|-------------------------------|-------------------------*|
|
| Q     E  E Q   E  E  E a E  +H.
|-------------------------------|------5---(5)------------*|
|---------------/5-----------/3-|----5h7---(7)------------*|
|---------------/6-----------/4-|-------------------------*|
|-------------------------------|-------------------------*|
|-------------------------------|-------------------------*|
|-------------------------------|-------------------------*|


Duration 🏷Legend
---------------
W - whole; H - half; Q - quarter; E - 8th; S - 16th; T - 32nd; X - 64th; a - acciaccatura
+ - note tied to previous; . - note dotted; .. - note double dotted
Uncapitalized letters represent notes that are staccato (1/2 duration)
Irregular groupings are notated above the duration line
Duration letters will always appear directly above the note/fret number it represents the
duration for. Duration letters with no fret number below them represent rests. Multi-
bar rests are notated in the form Wxn, where n is the number of bars to rest for. Low
melody durations appear below the staff

Tablature 🏷Legend
----------------
 h  - hammer-on
 p  - pull-off
 b  - bend
 pb - pre-bend
 r  - bend release (if no number after the r, then release immediately)
 /\ - slide into or out of (from/to "nowhere")
 s  - legato slide
 S  - shift slide
 - natural harmonic
n: - artificial harmonic
n(n) - tapped harmonic
 ~  - vibrato
 tr - trill
 T  - tap
 TP - trem. picking
 PM - palm muting
\n/ - tremolo bar dip; n = amount to dip
 \n - tremolo bar down
 n/ - tremolo bar up
/n\ - tremolo bar inverted dip
 =  - hold bend; also acts as connecting device for hammers/pulls
  - volume swell (louder/softer)
 x  - on rhythm slash represents muted slash
 o  - on rhythm slash represents single note slash

Misc 🏷Legend
-----------
 | - bar
|| - double bar
||o - repeat start
o|| - repeat end
*| - double bar (ending)
 : - bar (freetime)
 $ - Segno
 & - Coda
Tempo markers - = BPM(8/16=s8/s16), where s8 = swing 8ths, s16 = swing 16ths



Maybe you'll wanna give me kisses sweet
But only for one night and no repeat
And maybe you'll go away and never call
And a taste of honey's worse than none at all

Oh little girl, in that case I don't want no part
I do believe that, that would only break my heart
Oh, but if you feel like lovin' me
If you got the notion
I second that emotion

So, if you feel like givin' me
A lifetime of devotion
I second that emotion

Ooh

Maybe you think that love would tie you down
And you don't have the time to hang around
Maybe you think that love was made for fools
And so it makes you wise to break the rules

Oh little girl
In that case I don't want no part
I do believe that, that would only break my heart
Oh, but if you feel like lovin' me
If you got the notion
I second that emotion

So, if you feel like givin' me
A lifetime of devotion
I second that emotion

Ooh, ooh

Ooh, ooh

Oh little girl, In that case I don't want no part
I do believe that, that would only break my heart
Oh, but if you feel like lovin' me
If you got the notion
I second that emotion

So, if you feel like givin' me
A lifetime of devotion
I second that emotion
Oh, little girl
I second that emotion
FADES: - Ooh little girl I second that emotion

Other versions of I Second That Emotion

Alternative guitar chords and tabs for I Second That Emotion by Smokey Robinson And The Miracles

Find guitar tabs and chords

A B C D E F G H I J K L M N O P Q R S T U V W X Y Z #