Bridge Over Troubled Water by Smokey Robinson And The Miracles

Bridge Over Troubled Water bass tab by Smokey Robinson And The Miracles

Bass tabs

  • Difficulty: Beginner
Tuning: EADG

1:35

G|9-\-----|
D|--------|
A|--------|
E|--------|




G|----------------------------------------------------------------|
D|2-----------2-------2-------2---------------------------------0-|
A|--------------------------------0-----------0-------0-------4---|
E|----------------------------------------------------------------|

G|----------------------------------------------------------------|
D|2-----------2-------2-------2-----------------------------------|
A|--------------------------------0-----------0---0-------0-------|
E|----------------------------------------------------------------|

G|----------------------------------------------------------------|
D|2-----------2-------2-----------------------------------------0-|
A|----------------------------4---0-----------0-------0-------4---|
E|----------------------------------------------------------------|

G|----------------------------------------------------------------|
D|2-------------------------------2-------------------------------|
A|------------4-2-0-----------2-4-------------4-2-0-----------2-4-|
E|----------------------------------------------------------------|

G|--------------------------------|
D|2-------2-------1---------------|
A|------------------------4-------|
E|--------------------------------|

2:02

G|------------------------2---4-----------------------------------|
D|--------------------4-4-----------------------------------1-----|
A|2-----------2-------------------2-----------2---2---4-----------|
E|----------------------------------------------------------------|

G|--------------------------------------------------------1-------|
D|2-----------2---1-----------1---0-------2-------4-----------2---|
A|--------------------------------------------------------------2-|
E|----------------------------------------------------------------|

G|----------------------------------------4---------------1-------|
D|------------------------------------4-------1---2---------------|
A|0---------------------------2-----------------------------------|
E|------------4---2-----------------------------------------------|

G|2---------------------------------------------------------------|
D|------------2---------------------------------------------------|
A|----------------0-------1-------2-----------2---4-------2-------|
E|----------------------------------------------------------------|

2:25

G|----------------------------------------------------------------|
D|----------------------------------------------------------------|
A|0-----------0-----------------2-4-----------3-------2-----------|
E|----------------4-------4---4-----------------------------------|

G|--------------------------------------------------------4-------|
D|4-----------3-------2---------------------------------------2---|
A|--------------------------------2-----------2---2---------------|
E|----------------------------------------------------------------|

G|------------------------------------------------2-------9-\-----|
D|--------------------------------------------2-------------------|
A|0-----------2---4-----------2---0-------------------------------|
E|----------------------------------------------------------------|

2:42

G|--------------------------------------------------------9-\-----|
D|2-----------2---2-----------2-----------------------------------| x2
A|--------------------------------0-----------0---0---------------|
E|----------------------------------------------------------------|

G|--------------------1-----------2-------------------2---6---9---|
D|2-----------2---2-------4---2-------2-----------2---------------|
A|----------------------------------------0---4-------------------|
E|----------------------------------------------------------------|

2:59

G|----------------------------------------------------------------|
D|2-----------2-------2-------2---------------------------------0-|
A|--------------------------------0-----------0-------0-------4---|
E|----------------------------------------------------------------|

G|----------------------------------------------------------------|
D|2-----------2-------2-------2-----------------------------------|
A|--------------------------------0-----------0---0-0---0-0-0---0-|
E|----------------------------------------------------------------|

G|----------------------------------------------------------------|
D|2-----------2-------2-----------------------------------------0-|
A|----------------------------4-2-0-----------0-------0-------4---|
E|----------------------------------------------------------------|

G|----------------------------------------------------------------|
D|2-------------------------------2-------------------------------|
A|------------4-2-0-----------2-4-------------4-2-0-----------2-4-|
E|----------------------------------------------------------------|

G|--------------------------------|
D|2-------2-------1---------------|
A|------------------------4-------|
E|--------------------------------|

3:24

G|------------------------2---4-----------------------------------|
D|--------------------4-4-------------------------------------1---|
A|2-----------2-------------------2-----------2---2-----4---------|
E|----------------------------------------------------------------|

G|--------------------------------------------------------1-------|
D|2-----------2---1-----------1---0-------2-------4-----------2---|
A|--------------------------------------------------------------2-|
E|----------------------------------------------------------------|

G|----------------------------------------4---------------1-------|
D|------------------------------------4-------1---2---------------|
A|0---------------------------2-----------------------------------|
E|------------4---2-----------------------------------------------|

G|2---------------------------------------------------------------|
D|------------2---------------------------------------------------|
A|----------------0-------1-------2-----------2---4-------2-------|
E|----------------------------------------------------------------|

3:46

G|--------------------------------------------------------1-------|
D|--------------------------------------------2---4---------------|
A|0-----------0---------------2-3-4-------4-----------------------|
E|----------------4-----------------------------------------------|

G|2---------------------------------------------------------------|
D|------------2---------------------------------------------------|
A|----------------0-------1-------2-------2-------4---4-------4---|
E|----------------------------------------------------------------|

G|----------------------------------------------------------------|
D|----------------------------------------------------------------|
A|0-----------0---------------4---------------3-------2-----------|
E|----------------4-----------------------------------------------|

G|------------------------------------------------------------4---|
D|4-----------3-------2---------------2---1-----------1---4-------|
A|--------------------------------2-----------4---2---------------|
E|----------------------------------------------------------------|

G|2---------------------------------------------------------------|
D|----2-------2-------1---2---4---------------2---------------2---|
A|--------4-------4---------------0---2---4-------0---2---3-------|
E|----------------------------------------------------------------|

4:14

G|--------------------------------------------------------9-\-----|
D|2-----------2---2-----------2-----------------------------------|
A|--------------------------------0-----------0---0---------------|
E|----------------------------------------------------------------|

G|--------------------------------------------------------9-\-----|
D|2-----------2---2-------2---------------------------------------|
A|----------------------2-----4-2-0-----------0---0---------------|
E|----------------------------------------------------------------|

Until fadeout.

G|--------------------------------------------------------9-\-----|
D|2-----------2---2-----------------------------------------------|
A|--------------------------------0-----------0---0---------------|
E|--------------------------0-2-4---------------------------------|

G|--------------------------------------------------------9-\-----|
D|2-----------2---2-----------------------------------------------|
A|----------------------2---------0-----------0---0---------------|
E|------------------------0---2-4---------------------------------|

G|--------------------------------------------------------9-\-----|
D|2-----------2---2-----------------------------------------------|
A|--------------------------2-----0-----------0---0---------------|
E|----------------------------0-4---------------------------------|

Find guitar tabs and chords

A B C D E F G H I J K L M N O P Q R S T U V W X Y Z #