Log in

One click and you are in

Login with Facebook Login with Google

Why sign up and log in

Guitar Tabs Explorer
The Smiths guitar tabs for Rusholme ruffians

Guitar tabs with lyrics

  • Capo on 2nd
Tuning: Standard (E A D G B E)

BEGINNING NOTES:
A chord diagramA majorA few things before you start,

I think it's best to tune your guitar up to A chord diagramF#F# rather than put a capo on the 2nd fret in standard since that's
the way Johnny plays it and in my experience, you get a better, more accurate sound and tone.

This is one of The Smiths' songs that sounds great on both an acoustic and electric guitar so feel totally
free to use either.

I've used certain clips, along with my own experimentation to help me compile this tab.

Credit to:
The Smiths live in Madrid 1985: (https://www.youtube.com/watch v=gQB_46d6a6s)

Thanks for using my tab, enjoy playing :)
KEY:
x = muted note
▲ = strum upward
▼ = strum downward


INTRO:

   ▼ ▲ ▼ ▲ ▼ ▲ ▼ ▲ ▼ ▲ ▼ ▲ ▼ ▲ ▼ ▲    ▼ ▲ ▼ ▲ ▼ ▼   ▼ ▲ ▼  ▼ ▲ ▼
e|---------------------------------|-0-0-0-0-0-0--0-0-0--0-0-0---------------|
B|-1-1-x-x-1-1-x-x-1-1-x-x-1-1-x-x-|-3-3-3-3-3-3--2-2-2--1-1-1---------------|
G|-0-0-x-x-0-0-x-x-0-0-x-x-0-0-x-x-|-4-4-4-4-4-4--3-3-3--0-0-0---------------|   x1
D|-2-2-x-x-2-2-x-x-2-2-x-x-2-2-x-x-|-5-5-5-5-5-5--4-4-4--2-2-2---------------|
A|-3-3-x-x-3-3-x-x-3-3-x-x-3-3-x-x-|-5-5-5-5-5-5--4-4-4--3-3-3---------------|
E|---------------------------------|-----------------------------------------|

Notes:
Keep playing the first repeating section until the switch at end of the intro, I didn't fully tab out each
time it's strummed because it takes up too much space.


VERSE:
"The last night of the fair"

   ▼ ▼ ▲ ▲ ▼  ▼ ▲ ▼ ▼   ▼ ▲ ▼ ▼ ▲ ▲ ▼  ▼ ▲ ▼ ▼    ▼ ▲ ▼ ▼ ▲ ▼ ▲ ▼ ▲  ▼ ▲ ▼  ▼ ▲ ▼
e|-0-0-0-0-0--0-0-0-0--0-0-0-0-0-0-0--0-0-0-0-|-0-0-0-0-0-0-0-0-0--0-0-0--0-0-0-|
B|-1-1-1-1-1--1-1-1-1--1-1-1-1-1-1-1--1-1-1-1-|-3-3-3-3-3-3-3-3-3--2-2-2--1-1-1-|
G|-0-0-0-0-0--2-2-2-2--0-0-0-0-0-0-2--2-2-2-2-|-4-4-4-4-4-4-4-4-4--3-3-3--0-0-0-|   x4
D|-2-2-2-2-2--2-2-2-2--2-2-2-2-2-2-2--2-2-2-2-|-5-5-5-5-5-5-5-5-5--4-4-4--2-2-2-|
A|-3-3-3-3-3--0-0-0-0--3-3-3-3-3-3-3--0-0-0-0-|-5-5-5-5-5-5-5-5-5--4-4-4--3-3-3-|
E|--------------------------------------------|---------------------------------|

Notes:
Again keep playing the first repeating section until the switch. Didn't have space to fully tab it out.


CHORUS:
"And though I...walk home alone"

   ▼ ▼ ▲ ▲ ▼  ▼ ▲ ▼ ▼   ▼ ▲ ▼ ▼ ▲ ▲ ▼   ▼ ▲ ▼ ▼    ▼ ▲ ▼ ▼ ▲ ▼ ▲ ▼ ▲  ▼ ▲ ▼  ▼ ▲ ▼
e|-0-0-0-0-0--0-0-0-0--0-0-0-0-0-0-0--0-0-0-0-|-0-0-0-0-0-0-0-0-0--0-0-0--0-0-0-|
B|-1-1-1-1-1--1-1-1-1--1-1-1-1-1-1-1--1-1-1-1-|-3-3-3-3-3-3-3-3-3--2-2-2--1-1-1-|
G|-0-0-0-0-0--2-2-2-2--0-0-0-0-0-0-2--2-2-2-2-|-4-4-4-4-4-4-4-4-4--3-3-3--0-0-0-|   x2
D|-2-2-2-2-2--2-2-2-2--2-2-2-2-2-2-2--2-2-2-2-|-5-5-5-5-5-5-5-5-5--4-4-4--2-2-2-|
A|-3-3-3-3-3--0-0-0-0--3-3-3-3-3-3-3--0-0-0-0-|-5-5-5-5-5-5-5-5-5--4-4-4--3-3-3-|
E|--------------------------------------------|---------------------------------|

Notes:
Again, keep playing the first repeating section until the switch. Didn't have space again.


VERSE:
"The last night of the fair"

   ▼ ▼ ▲ ▲ ▼  ▼ ▲ ▼ ▼   ▼ ▲ ▼ ▼ ▲ ▲ ▼  ▼ ▲ ▼ ▼    ▼ ▲ ▼ ▼ ▲ ▼ ▲ ▼ ▲  ▼ ▲ ▼  ▼ ▲ ▼
e|-0-0-0-0-0--0-0-0-0--0-0-0-0-0-0-0--0-0-0-0-|-0-0-0-0-0-0-0-0-0--0-0-0--0-0-0-|
B|-1-1-1-1-1--1-1-1-1--1-1-1-1-1-1-1--1-1-1-1-|-3-3-3-3-3-3-3-3-3--2-2-2--1-1-1-|
G|-0-0-0-0-0--2-2-2-2--0-0-0-0-0-0-2--2-2-2-2-|-4-4-4-4-4-4-4-4-4--3-3-3--0-0-0-|   x2
D|-2-2-2-2-2--2-2-2-2--2-2-2-2-2-2-2--2-2-2-2-|-5-5-5-5-5-5-5-5-5--4-4-4--2-2-2-|
A|-3-3-3-3-3--0-0-0-0--3-3-3-3-3-3-3--0-0-0-0-|-5-5-5-5-5-5-5-5-5--4-4-4--3-3-3-|
E|--------------------------------------------|---------------------------------|


CHORUS:
"And though I...walk home alone"

   ▼ ▼ ▲ ▲ ▼  ▼ ▲ ▼ ▼   ▼ ▲ ▼ ▼ ▲ ▲ ▼  ▼ ▲ ▼ ▼    ▼ ▲ ▼ ▼ ▲ ▼ ▲ ▼ ▲  ▼ ▲ ▼  ▼ ▲ ▼
e|-0-0-0-0-0--0-0-0-0--0-0-0-0-0-0-0--0-0-0-0-|-0-0-0-0-0-0-0-0-0--0-0-0--0-0-0-|
B|-1-1-1-1-1--1-1-1-1--1-1-1-1-1-1-1--1-1-1-1-|-3-3-3-3-3-3-3-3-3--2-2-2--1-1-1-|
G|-0-0-0-0-0--2-2-2-2--0-0-0-0-0-0-2--2-2-2-2-|-4-4-4-4-4-4-4-4-4--3-3-3--0-0-0-|   x1
D|-2-2-2-2-2--2-2-2-2--2-2-2-2-2-2-2--2-2-2-2-|-5-5-5-5-5-5-5-5-5--4-4-4--2-2-2-|
A|-3-3-3-3-3--0-0-0-0--3-3-3-3-3-3-3--0-0-0-0-|-5-5-5-5-5-5-5-5-5--4-4-4--3-3-3-|
E|--------------------------------------------|---------------------------------|


VERSE:
"And someone falls in love"

   ▼ ▼ ▲ ▲ ▼  ▼ ▲ ▼ ▼   ▼ ▲ ▼ ▼ ▲ ▲ ▼  ▼ ▲ ▼ ▼    ▼ ▲ ▼ ▼ ▲ ▼ ▲ ▼ ▲  ▼ ▲ ▼  ▼ ▲ ▼
e|-0-0-0-0-0--0-0-0-0--0-0-0-0-0-0-0--0-0-0-0-|-0-0-0-0-0-0-0-0-0--0-0-0--0-0-0-|
B|-1-1-1-1-1--1-1-1-1--1-1-1-1-1-1-1--1-1-1-1-|-3-3-3-3-3-3-3-3-3--2-2-2--1-1-1-|
G|-0-0-0-0-0--2-2-2-2--0-0-0-0-0-0-2--2-2-2-2-|-4-4-4-4-4-4-4-4-4--3-3-3--0-0-0-|   x3
D|-2-2-2-2-2--2-2-2-2--2-2-2-2-2-2-2--2-2-2-2-|-5-5-5-5-5-5-5-5-5--4-4-4--2-2-2-|
A|-3-3-3-3-3--0-0-0-0--3-3-3-3-3-3-3--0-0-0-0-|-5-5-5-5-5-5-5-5-5--4-4-4--3-3-3-|
E|--------------------------------------------|---------------------------------|


CHORUS:
"And though I...walk home alone"

   ▼ ▼ ▲ ▲ ▼  ▼ ▲ ▼ ▼   ▼ ▲ ▼ ▼ ▲ ▲ ▼  ▼ ▲ ▼ ▼    ▼ ▲ ▼ ▼ ▲ ▼ ▲ ▼ ▲  ▼ ▲ ▼  ▼ ▲ ▼
e|-0-0-0-0-0--0-0-0-0--0-0-0-0-0-0-0--0-0-0-0-|-0-0-0-0-0-0-0-0-0--0-0-0--0-0-0-|
B|-1-1-1-1-1--1-1-1-1--1-1-1-1-1-1-1--1-1-1-1-|-3-3-3-3-3-3-3-3-3--2-2-2--1-1-1-|
G|-0-0-0-0-0--2-2-2-2--0-0-0-0-0-0-2--2-2-2-2-|-4-4-4-4-4-4-4-4-4--3-3-3--0-0-0-|   x2
D|-2-2-2-2-2--2-2-2-2--2-2-2-2-2-2-2--2-2-2-2-|-5-5-5-5-5-5-5-5-5--4-4-4--2-2-2-|
A|-3-3-3-3-3--0-0-0-0--3-3-3-3-3-3-3--0-0-0-0-|-5-5-5-5-5-5-5-5-5--4-4-4--3-3-3-|
E|--------------------------------------------|---------------------------------|


VERSE:
"This is the last night of the fair"

   ▼ ▼ ▲ ▲ ▼  ▼ ▲ ▼ ▼   ▼ ▲ ▼ ▼ ▲ ▲ ▼  ▼ ▲ ▼ ▼    ▼ ▲ ▼ ▼ ▲ ▼ ▲ ▼ ▲  ▼ ▲ ▼  ▼ ▲ ▼
e|-0-0-0-0-0--0-0-0-0--0-0-0-0-0-0-0--0-0-0-0-|-0-0-0-0-0-0-0-0-0--0-0-0--0-0-0-|
B|-1-1-1-1-1--1-1-1-1--1-1-1-1-1-1-1--1-1-1-1-|-3-3-3-3-3-3-3-3-3--2-2-2--1-1-1-|
G|-0-0-0-0-0--2-2-2-2--0-0-0-0-0-0-2--2-2-2-2-|-4-4-4-4-4-4-4-4-4--3-3-3--0-0-0-|   x6
D|-2-2-2-2-2--2-2-2-2--2-2-2-2-2-2-2--2-2-2-2-|-5-5-5-5-5-5-5-5-5--4-4-4--2-2-2-|
A|-3-3-3-3-3--0-0-0-0--3-3-3-3-3-3-3--0-0-0-0-|-5-5-5-5-5-5-5-5-5--4-4-4--3-3-3-|
E|--------------------------------------------|---------------------------------|


VERSE:
"Soo, scratch my name on your arm with a fountain pen"

   ▼ ▼ ▲ ▲ ▼  ▼ ▲ ▼ ▼   ▼ ▲ ▼ ▼ ▲ ▲ ▼  ▼ ▲ ▼ ▼    ▼ ▲ ▼ ▼ ▲ ▼ ▲ ▼ ▲  ▼ ▲ ▼  ▼ ▲ ▼
e|-0-0-0-0-0--0-0-0-0--0-0-0-0-0-0-0--0-0-0-0-|-0-0-0-0-0-0-0-0-0--0-0-0--0-0-0-|
B|-1-1-1-1-1--1-1-1-1--1-1-1-1-1-1-1--1-1-1-1-|-3-3-3-3-3-3-3-3-3--2-2-2--1-1-1-|
G|-0-0-0-0-0--2-2-2-2--0-0-0-0-0-0-2--2-2-2-2-|-4-4-4-4-4-4-4-4-4--3-3-3--0-0-0-|   x3
D|-2-2-2-2-2--2-2-2-2--2-2-2-2-2-2-2--2-2-2-2-|-5-5-5-5-5-5-5-5-5--4-4-4--2-2-2-|
A|-3-3-3-3-3--0-0-0-0--3-3-3-3-3-3-3--0-0-0-0-|-5-5-5-5-5-5-5-5-5--4-4-4--3-3-3-|
E|--------------------------------------------|---------------------------------|


CHORUS
"And though I...walk home alone"

   ▼ ▼ ▲ ▲ ▼  ▼ ▲ ▼ ▼   ▼ ▲ ▼ ▼ ▲ ▲ ▼  ▼ ▲ ▼ ▼    ▼ ▲ ▼ ▼ ▲ ▼ ▲ ▼ ▲  ▼ ▲ ▼  ▼ ▲ ▼
e|-0-0-0-0-0--0-0-0-0--0-0-0-0-0-0-0--0-0-0-0-|-0-0-0-0-0-0-0-0-0--0-0-0--0-0-0-|
B|-1-1-1-1-1--1-1-1-1--1-1-1-1-1-1-1--1-1-1-1-|-3-3-3-3-3-3-3-3-3--2-2-2--1-1-1-|
G|-0-0-0-0-0--2-2-2-2--0-0-0-0-0-0-2--2-2-2-2-|-4-4-4-4-4-4-4-4-4--3-3-3--0-0-0-|   x3
D|-2-2-2-2-2--2-2-2-2--2-2-2-2-2-2-2--2-2-2-2-|-5-5-5-5-5-5-5-5-5--4-4-4--2-2-2-|
A|-3-3-3-3-3--0-0-0-0--3-3-3-3-3-3-3--0-0-0-0-|-5-5-5-5-5-5-5-5-5--4-4-4--3-3-3-|
E|--------------------------------------------|---------------------------------|


OUTRO:

   ▼ ▼ ▲ ▲ ▼  ▼ ▲ ▼ ▼   ▼ ▲ ▼ ▼ ▲ ▲ ▼  ▼ ▲ ▼ ▼    ▼ ▲ ▼ ▼ ▲ ▼ ▲ ▼ ▲  ▼ ▲ ▼  ▼ ▲ ▼  ▲ ▼
e|-0-0-0-0-0--0-0-0-0--0-0-0-0-0-0-0--0-0-0-0-|-0-0-0-0-0-0-0-0-0--0-0-0--0-0-0--0-0-|
B|-1-1-1-1-1--1-1-1-1--1-1-1-1-1-1-1--1-1-1-1-|-3-3-3-3-3-3-3-3-3--2-2-2--1-1-1--1-1-|
G|-0-0-0-0-0--2-2-2-2--0-0-0-0-0-0-2--2-2-2-2-|-4-4-4-4-4-4-4-4-4--3-3-3--0-0-0--0-2-|   x1
D|-2-2-2-2-2--2-2-2-2--2-2-2-2-2-2-2--2-2-2-2-|-5-5-5-5-5-5-5-5-5--4-4-4--2-2-2--2-2-|
A|-3-3-3-3-3--0-0-0-0--3-3-3-3-3-3-3--0-0-0-0-|-5-5-5-5-5-5-5-5-5--4-4-4--3-3-3--0-0-|
E|--------------------------------------------|--------------------------------------|

Notes:
Again, keep playing the first section until the switch.

The only difference here is that the extra notes on the end.

Make sure once you've strummed the last note, abruptly mute your strings.

Other versions of Rusholme Ruffians

Rusholme ruffiansChords

↓ Add and view comments below ↓

What do you think about this song and these tabs?

Add your comments, questions, rant or a thumbs up below.

Almost there ...

Sign in to get your own page with links to favourite songs and more. You are just one click away...

Login with Facebook Login with Google