Guitar Tabs Explorer
The Smiths bass tabs for Heaven knows im miserable now

Heaven Knows I'm Miserable Now bass tab by The Smiths

The Smiths bass tabs for Heaven knows im miserable now

Bass tabs

🎸 Intro:

A |-----------44-----|------------------|------------------|------------------|
E |-2-------------2--|------------------|------------------|------------------|
B |------------------|-3-------------3--|-2----------------|-0----------------|
F#|------------------|-----------33-----|---------2b-------|---------------0--|

A |------------------|------------------|------------------|------------------|
E |------------------|-----------2-0h1--|------------------|-----------2-0h1--|
B |-0-------0-0---1--|-2--------2-2---2-|-0-------0-0---1--|-2--------2-2---2-|
F#|--------0-0-------|------------------|--------0-0-------|------------------|

🎸 Verse 1:

A |---------2-1------|------------------|------------------|------------------|
E |-------------4-2--|------------------|------------------|-----------2-0h1--|
B |------2h4---------|-4-----4----------|------------------|-0-----012--2---2-|
F#|-0----------------|---------4---3----|-2-----2-0-----0--|------------------|

A |---------2-1------|------------------|------------------|------------------|
E |-------------4-2--|------------------|------------------|------------------|
B |------2h4---------|-4-----4----------|------------------|-0-----0-0---7/---|
F#|-0----------------|---------4---3----|-2-----2-0-----0--|------------------|

A |------------------|------------------|------------------|/6-------4--------|
E |---------2--------|------------------|------22----------|------------------|
B |-------------2----|-0-----0-2-----2--|--------2---------|------------------|
F#|-0-----0----------|------------------|-0-------0-----0--|/5-----5-4-----4--|

A |/9-------8--------|-5------/13-------|\6-------8--------|-6-------4--------|
E |------------------|------------------|------------------|------------------|
B |------------------|------------------|------------------|------------------|
F#|/9-----9-7-----7--|-5-----5/12-------|\5-----5-7-----7--|-5-----5-4-----4--|

A |/9-------8--------|-5------/13-------|\6-----------6/7--|/8----------------|
E |------------------|------------------|------------------|------------------|
B |------------------|------------------|------------------|------------------|
F#|/9-----9-7-----7--|-5-----5/12-------|\5-----------5/6--|/7-------7\-------|
🎸 Verse 2:

A |---------2-1------|------------------|------------------|------------------|
E |-------------4-2--|------------------|------------------|-------2-0h1--2-1-|
B |------2h4---------|-4-----4----------|------------------|-0----2-2---2-----| 4x
F#|-0----------------|---------4---3----|-2-----2-0-----0--|------------------|


🎸 Break:

A |-----------44-----|------------------|------------------|------------------|
E |-2-------------2--|------------------|------------------|------------------|
B |------------------|-3-------------3--|-2----------------|-0----------------|
F#|------------------|-----------33-----|---------2b-------|---------------0--|

A |------------------|------------------|------------------|------------------|
E |------------------|-----------2-0h1--|------------------|-----------2-0h1--|
B |-0-------0-0---1--|-2--------2-2---2-|-0-------0-0---1--|-2--------2-2---2-|
F#|--------0-0-------|------------------|--------0-0-------|------------------|


🎸 Verse 3:

A |---------2-1------|------------------|------------------|------------------|
E |-------------4-2--|------------------|------------------|-----------2-0h1--|
B |------2h4---------|-4-----4----------|------------------|-0-----012--2---2-|
F#|-0----------------|---------4---3----|-2-----2-0-----0--|------------------|

A |---------2-1------|------------------|------------------|------------------|
E |-------------4-2--|------------------|------------------|------------------|
B |------2h4---------|-4-----4----------|------------------|-0-----0-0---7/---|
F#|-0----------------|---------4---3----|-2-----2-0-----0--|------------------|

A |------------------|------------------|------------------|/6-------4--------|
E |---------2--------|------------------|------22----------|------------------|
B |-------------2----|-0-----0-2-----2--|--------2---------|------------------|
F#|-0-----0----------|------------------|-0-------0-----0--|/5-----5-4-----4--|

A |/9-------8--------|-5------/13-------|\6-------8--------|-6-------4--------|
E |------------------|------------------|------------------|------------------|
B |------------------|------------------|------------------|------------------|
F#|/9-----9-7-----7--|-5-----5/12-------|\5-----5-7-----7--|-5-----5-4-----4--|

A |/9-------8--------|-5------/13-------|\6-----------6/7--|/8----------------|
E |------------------|------------------|------------------|------------------|
B |------------------|------------------|------------------|------------------|
F#|/9-----9-7-----7--|-5-----5/12-------|\5-----------5/6--|/7-------7\-------|


🎸 Verse 4:

A |---------2-1------|------------------|------------------|------------------|
E |-------------4-2--|------------------|------------------|-------2-0h1--2-1-|
B |------2h4---------|-4-----4----------|------------------|-0----2-2---2-----| 6x
F#|-0----------------|---------4---3----|-2-----2-0-----0--|------------------|


🎸 Outro:

A |-----------44-----|------------------|------------------|--------------------|
E |-2-------------2--|------------------|------------------|--------------------|
B |------------------|-3-------------3--|-2----------------|--------------------|
F#|------------------|-----------33-----|-------0-0--------|-5-------------3/5--|


b = Bend
h = Hammer-On
/ = Slide Up
\ = Slide Down
ⓘ Bass guitar tab for 'Heaven Knows Im Miserable Now' by The Smiths, a male indie artist from Manchester, England. The Smiths was born in 1982. The Smiths is known for his quirky rock/pop music.