Log in

One click and you are in

Login with Facebook Login with Google

Why sign up and log in

Guitar Tabs Explorer
Willow Smith bass tabs for Wait a minute

Bass tabs

Main Bass Line:

G|------------------------------8-------------------------------------------|
D|--------------------------------8-6--6\---6p---8p-------------------------|
A|--------9----------8---6--6-----------------------------------------------|
E|-7--7-----7-6--6-----6------------------4---6-----------------------------|


Breakdown/Bridge:

                                              1st End | Ending before last Chorus
G|--------------------------------------------|-------|----------------------|
D|-------6-4----------------------------------|-------|----------------------|
A|-----------6-4--4--4-2-4/6-4--4--4----------|-2--4--|----------------------|
E|-4--4------------------------------7-6-4--4-|-------|-2--------------------|

Almost there ...

Sign in to get your own page with links to favourite songs and more. You are just one click away...

Login with Facebook Login with Google