Log in

One click and you are in

Login with Facebook Login with Google

Why sign up and log in

Guitar Tabs Explorer
Willow Smith bass tabs for Meet me at our spot

Meet Me At Our Spot bass tab by Willow Smith

Willow Smith bass tabs for Meet me at our spot

Bass tabs

Tuning: B Tuning (B E A D)


Intro:

 3x
G|-------------------------------------|
D|-------------------------------------|
A|-------------------------------------|
B|--3-3-3-3-3-3-3-3--8-8-8-8--7-7-7-7--|

G|--------------------------------------|
D|--------------------------------------|
A|--------------------------------------|
B|--0-0-0-0-0-0-0-0--8-8-8-8-2-2-2-2----|

Verse:

 3x
G|-------------------------------------|
D|-------------------------------------|
A|-------------------------------------|
B|--3-3-3-3-3-3-3-3--8-8-8-8--7-7-7-7--|

G|--------------------------------------|
D|--------------------------------------|
A|--------------------------------------|
B|--0-0-0-0-0-0-0-0--8-8-8-8-2-2-2-2----|


Chorus:
 3x
G|-------------------------------------|
D|-------------------------------------|
A|-------------------------------------|
B|--3-3-3-3-3-3-3-3--8-8-8-8--7-7-7-7--|

G|--------------------------------------|
D|--------------------------------------|
A|--------------------------------------|
B|--0-0-0-0-0-0-0-0--8-8-8-8-2-2-2-2----|



* first string tuned to B *

Almost there ...

Sign in to get your own page with links to favourite songs and more. You are just one click away...

Login with Facebook Login with Google