Log in

One click and you are in

Login with Facebook Login with Google

Why sign up and log in

Guitar Tabs Explorer
Will Smith bass tabs for Men in black

Bass tabs

#1 Intro - Played Only Once

G |-----------------|-----------------|-----------------|-----------------|
D |---3---3---3---3-|---3-------------|-----------------|-----------------|
A |-----------------|-----------------|-----------------|-----------------|
E |-1---1---1---1---|-1---------------|-----------------|-----------------|
  1 & 2 & 3 & 4 &  1 & 2 & 3 & 4 &  1 & 2 & 3 & 4 &  1 & 2 & 3 & 4 &


#2 Main Bass Line - Repeat

G |-------6---------|-----------------|-------6---------|-----------------|
D |---3-------0-1-1-|-1---------1-3---|---3-------3-5-3-|-5-3-5-----------|
A |-----4---4-------|---0-3-3-3-------|-----4---4-------|-------0-5-5-5---|
E |-1---------------|-----------------|-1---------------|-----------------|
  1 & 2 & 3 & 4 &  1 & 2 & 3 & 4 &  1 & 2 & 3 & 4 &  1 & 2 & 3 & 4 &

#3 Main Bass Line - Repeat

G |-----------------|-----------------|-----------------|-----------------|
D |-1-3-------------|-----------------|-----------------|-----------------|
A |-----------------|-----------------|-----------------|-----------------|
E |-----------------|-----------------|-----------------|-----------------|
  1 & 2 & 3 & 4 &  1 & 2 & 3 & 4 &  1 & 2 & 3 & 4 &  1 & 2 & 3 & 4 &

Almost there ...

Sign in to get your own page with links to favourite songs and more. You are just one click away...

Login with Facebook Login with Google