Log in

One click and you are in

Login with Facebook Login with Google

Why sign up and log in

Guitar Tabs Explorer
Elliott Smith bass tabs for Son of sam

Bass tabs with lyrics

Album: Figure 8 (2000)

YouTube Channel: https://www.youtube.com/user/Radagast27
Video for this song: https://www.youtube.com/watch v=s42IitbJpYs

Tuning: standard
Intro/Verse:
G|------------------------------------------------------------------------------|
D|--6--5--4--3------------------------------------------------------------------|
A|--------------7--------------------3--5--5-5----------------------------------|
E|------------------5--5-5---5--5-5-------------1--0-1-3-1-0--1-0---------------|


Chorus:
G|------------------------------------------------------------------------------|
D|------------------------------------------------------------------------------|
A|-----2-2--3----10--10-9--9-8---3-2-----2-2--3-5-6-7----------3-2-------11-----|
E|--5--------------------------------5-----------------7--0---------5------12---|


Verse:
G|------------------------------------------------------------------------------|
D|------------------------------------------------------------------------------|
A|-------------------3--5--5-5--7-8--8-8--7-------------------------------------|
E|--5--5-5---5--5-5--------------------------8----------------------------------|


Chorus:
G|------------------------------------------------------------------------------|
D|------------------------------------------------------------------------------|
A|-----2-2--3----10--10-9--9-8---3-2-----2-2---------3--3-2---------------------|
E|--5--------------------------------5---------1-3-5----------1---1-------------|

Guitar Solo:
G|------------------------------------------------------------------------------|
D|------------------------------------------------------------------------------|
A|---------8-8-8---5-5-5---8-8-8---------8-7-5-----5-3-2------------------------|
E|--5-5-5-------------------------5-5-5--------8---------5----1--3--3-----------|

G|------------------------------------------------------------------------------|
D|------------------------------------------------------------------------------|
A|-------------------3--5--5-5--7-8--8-8--7-------------------------------------|
E|--5--5-5---5--5-5--------------------------8----------------------------------|

Chorus:
G|------------------------------------------------------------------------------|
D|------------------------------------------------------------------------------|
A|-----2-2--3----10--10-9--9-8---3-2-----2-2---------3--3-2---------------------|
E|--5--------------------------------5---------1-3-5----------1---3-------------|


Bridge:
G|------------------------------------------------------------------------------|
D|-----------10-----------------------------------------------------------------|
A|------11-------9--11---10-----------------------------------------------------|
E|--5-----------------------10--13--10--13--12----------------------------------|


Outro:
G|------------------------------------------------------------------------------|
D|------------------------------------------------------------------------------|
A|--------------------5--5-5-----------7--7-7-----------------------------------|
E|--5--5-5---4--4-4------------5--5-5------------3--3-3--1--1-1----0---1---3----|

G|------------------------------------------------------------------------------|
D|------------------5--7--------------------------------------------------------|
A|-----2--3---5--7---------7----------------------------------------------------|
E|--5---------------------------5-----------------------------------------------|


| / slide up
| \ slide down
| h hammer-on
| p pull-off
| ~ vibrato
| + harmonic
| x Mute note


Lyrics:
Something's happening, don't speak to soon
I told the boss off and made my move
Got no where to go
Son of sam, son of a shining path, the clouded mind
Couple killer each and every time
I'm not uncomfortable, feeling weird
Long revered options disappear
But I know what to do
Son of sam, son of a doctor's touch, a nurse's love
Acting under orders from above...
King for a day...
Son of sam, son of a shining path, the clouded mind
Couple killer running out of time
Shiva opens her arms now
To make sure I don't get to far
I may talk in my sleep tonight cause I don't know what I am

Almost there ...

Sign in to get your own page with links to favourite songs and more. You are just one click away...

Login with Facebook Login with Google