Log in

One click and you are in

Login with Facebook Login with Google

Why sign up and log in

Guitar Tabs Explorer
Elliott Smith tabs for Angel in the snow

Solo tabs

|-10--10--10--10---8---7-|-7---7---8---7---5---7--|
|-12--12--12--12--10---8-|-8---8---8---8---8---8--|
|--0---0---0---0---0---0-|-0---0---0---0---0---0--|
|------------------------|------------------------|
|------------------------|------------------------|
|------------------------|------------------------|
|--0---0---0---9---9---0-|------------------------|
|-10--10--10--10--10--10-|-8---8---8---8---8---8--|
|--9---9---9---9---9---9-|-7-9h9---7-9h9---9---7--|
|-11--11--11--11--11--11-|-9---9---9---9---9---9--|
|------------------------|------------------------|
|------------------------|------------------------|


|-10--10--10--10---8---7-|-7---7---8---7---5---7--|
|-12--12--12--12--10---8-|-8---8---8---8---8---8--|
|--0---0---0---0---0---0-|-0---0---0---0---0---0--|
|------------------------|------------------------|
|------------------------|------------------------|
|------------------------|------------------------|


|--5---5---5---5---5---5-|-s9---9---9--10--10--10-|
|--5---5---5---5---5---5-|s10--10--10--10--10--11-|
|--6---6---6---6---6---6-|-s9---9---9---9---9---9-|
|------------------------|------------------------|
|------------------------|------------------------|
|------------------------|------------------------|


|-10--10--10--10---8---7-|-7---7---8---7---5---7--|
|-12--12--12--12--10---8-|-8---8---8---8---8---8--|
|--0---0---0---0---0---0-|-0---0---0---0---0---0--|
|------------------------|------------------------|
|------------------------|------------------------|
|------------------------|------------------------|

|--0---0---0---9---9---0-|------------------------|
|-10--10--10--10--10--10-|-8---8---8---8---8---8--|
|--9---9---9---9---9---9-|-7-9h9---7-9h9---9---7--|
|-11--11--11--11--11--11-|-9---9---9---9---9---9--|
|------------------------|------------------------|
|------------------------|------------------------|


|-10--10--10--10---8---7-|-7---7---8---7---5---7--|
|-12--12--12--12--10---8-|-8---8---8---8---8---8--|
|--0---0---0---0---0---0-|-0---0---0---0---0---0--|
|------------------------|------------------------|
|------------------------|------------------------|
|------------------------|------------------------|


|--5---5---5---5---5---5-|-s9---9---9---9---9---9-|
|--5---5---5---5---5---5-|s10--10--10--10--10--10-|
|--6---6---6---6---6---6-|-s9---9---9---9---9---9-|
|------------------------|------------------------|
|------------------------|------------------------|
|------------------------|------------------------|

Other versions of Angel In The Snow

Angel in The SnowChords

Almost there ...

Sign in to get your own page with links to favourite songs and more. You are just one click away...

Login with Facebook Login with Google