Log in

One click and you are in

Login with Facebook Login with Google

Why sign up and log in

Guitar Tabs Explorer
Smash Mouth guitar tabs for Nervous in the alley

Guitar tabs

Tuning: Half-Step Down (A chord diagramEb MajorEb A chord diagramAbAb A chord diagramDbDb A chord diagramGbGb A chord diagramBb majorBb A chord diagramEb MajorEb)



Intro:
    A chord diagramAbAb    A chord diagramEb MajorEb    A chord diagramDbDb    A chord diagramEb MajorEb       A chord diagramAbAb    A chord diagramEb MajorEb    A chord diagramDbDb    A chord diagramEb MajorEb
Eb|----0-----------2--------|----0-----------2--------|
Bb|----2-----0-----3-----0--|----2-----0-----3-----0--|
Gb|----2-----1-----2-----1--|----2-----1-----2-----1--|
Db|----2-----2--0--------2--|----2-----2--0--------2--|
Ab|-0--------2-----------2--|-0--------2-----------2--|
Eb|-------0-----------0-----|-------0-----------0-----|
    1  &  2  &  3  &  4  &    1  &  2  &  3  &  4  &

    A chord diagramAbAb    A chord diagramEb MajorEb    A chord diagramDbDb    A chord diagramEb MajorEb      A chord diagramBb majorBb
Eb|----------------2--------|-0----------------------|
Bb|----2-----0-----3-----0--|-0----------------------|
Gb|----2-----1-----2-----1--|-4----------------------|
Db|----2-----2--0--------2--|-4----------------------|
Ab|-0--------2-----------2--|-2----------------------|
Eb|-------0-----------0-----|------------------------|
    1  &  2  &  3  &  4  &    1  &  2  &  3  &  4  &

Eb|-----------------|-----------------|-----------------|-----------------|
Bb|-----------------|-----------------|-----------------|-----------------|
Gb|-----------------|-----------------|-----------------|-----------------|
Db|-----------------|-----------------|-----------------|-----------------|
Ab|-------0-4-5-4-0-|-------0-4-5-4-0-|-------0-4-5-4-0-|-------0-4-5-4-0-|
Eb|-2-2-2-----------|-2-2-2-----------|-2-2-2-----------|-2-2-2-----------|
    1 & 2 & 3 & 4 &   1 & 2 & 3 & 4 &   1 & 2 & 3 & 4 &   1 & 2 & 3 & 4 &


Verse 1:

   "She's 15..."
    A chord diagramF minorFm                A chord diagramF minorFm                A chord diagramDbDb                A chord diagramAbAb      A chord diagramEb MajorEb
Eb|-2-2---2---2---2-|---2---2---2---2-|---5---5---5---5-|---5---5---7---7-|
Bb|-2-2---2---2---2-|---2---2---2---2-|---7---7---7---7-|---5---5---9---9-|
Gb|-2-2---2---2---2-|---2---2---2---2-|---7---7---7---7-|---6---6---9---9-|
Db|-4-4---4---4---4-|---4---4---4---4-|---7---7---7---7-|---7---7---9---9-|
Ab|-4-4---4---4---4-|---4---4---4---4-|---5---5---5---5-|---7---7---7---7-|
Eb|-----------------|-----------------|-----------------|-----------------|
    1 & 2 & 3 & 4 &   1 & 2 & 3 & 4 &   1 & 2 & 3 & 4 &   1 & 2 & 3 & 4 &

    A chord diagramF minorFm                A chord diagramF minorFm                A chord diagramDbDb                A chord diagramAbAb      A chord diagramEb MajorEb
Eb|---2---2---2---2-|---2---2---2---2-|---5---5---5---5-|---5---5---7---7-|
Bb|---2---2---2---2-|---2---2---2---2-|---7---7---7---7-|---5---5---9---9-|
Gb|---2---2---2---2-|---2---2---2---2-|---7---7---7---7-|---6---6---9---9-|
Db|---4---4---4---4-|---4---4---4---4-|---7---7---7---7-|---7---7---9---9-|
Ab|---4---4---4---4-|---4---4---4---4-|---5---5---5---5-|---7---7---7---7-|
Eb|-----------------|-----------------|-----------------|-----------------|
    1 & 2 & 3 & 4 &   1 & 2 & 3 & 4 &   1 & 2 & 3 & 4 &   1 & 2 & 3 & 4 &

    A chord diagramF minorFm                A chord diagramF minorFm                A chord diagramDbDb                A chord diagramAbAb      A chord diagramEb MajorEb
Eb|---2---2---2---2-|---2---2---2---2-|---5---5---5---5-|---5---5---7---7-|
Bb|---2---2---2---2-|---2---2---2---2-|---7---7---7---7-|---5---5---9---9-|
Gb|---2---2---2---2-|---2---2---2---2-|---7---7---7---7-|---6---6---9---9-|
Db|---4---4---4---4-|---4---4---4---4-|---7---7---7---7-|---7---7---9---9-|
Ab|---4---4---4---4-|---4---4---4---4-|---5---5---5---5-|---7---7---7---7-|
Eb|-----------------|-----------------|-----------------|-----------------|
    1 & 2 & 3 & 4 &   1 & 2 & 3 & 4 &   1 & 2 & 3 & 4 &   1 & 2 & 3 & 4 &

Pre-Chorus:

   "Who said anything..."
    A chord diagramBb majorBb                        A chord diagramAbAb    A chord diagramEb MajorEb    A chord diagramDbDb    A chord diagramEb MajorEb
Eb|-------------------------|----0-----------2--------|
Bb|-4-----------------------|----2-----0-----3-----0--|
Gb|-4-----------------------|----2-----1-----2-----1--|
Db|-4-----------------------|----2-----2--0--------2--|
Ab|-2-----------------------|-0--------2-----------2--|
Eb|-------------------------|-------0-----------0-----|
    1  &  2  &  3  &  4  &    1  &  2  &  3  &  4  &


Chorus:

   "Wasted..."
    A chord diagramF minorFm        A chord diagramC majorC   A chord diagramDbDb                    A chord diagramAbAb                A chord diagramEb MajorEb
Eb|-----------------|-----------------|-----------------|-----------------|
Bb|-----------------|-----------------|-----------------|-----------------|
Gb|-----------6---7-|---7-----7-7-7---|-----------------|-9---9---9-9-9---|
Db|-4---4-----6---7-|---7-----7-7-7---|-7---------------|-9---9---9-9-9---|
Ab|-4---4-----4---5-|---5-----5-5-5---|-7---------------|-7---7---7-7-7---|
Eb|-2---2-----------|-----------------|-5---5-5-5-5-5-5-|-----------------|
    1 & 2 & 3 & 4 &   1 & 2 & 3 & 4 &   1 & 2 & 3 & 4 &   1 & 2 & 3 & 4 &

    A chord diagramF minorFm        A chord diagramC majorC   A chord diagramDbDb                    A chord diagramAbAb      A chord diagramEb MajorEb
Eb|-----------------|-----------------|-----------------|
Bb|-----------------|-----------------|-----------------|
Gb|-----------6---7-|---7-----7-7-7---|---------9-9-9---|
Db|-4---4-----6---7-|---7-----7-7-7---|-7-7-7---9-9-9---|
Ab|-4---4-----4---5-|---5-----5-5-5---|-7-7-7---7-7-7---|
Eb|-2---2-----------|-----------------|-5-5-5-----------|
    1 & 2 & 3 & 4 &   1 & 2 & 3 & 4 &   1 & 2 & 3 & 4 &


Instrumental:

Eb|-----------------|-----------------|-----------------|-----------------|
Bb|-----------------|-----------------|-----------------|-----------------|
Gb|-----------------|-----------------|-----------------|-----------------|
Db|-----------------|-----------------|-----------------|-----------------|
Ab|-------0-4-5-4-0-|-------0-4-5-4-0-|-------0-4-5-4-0-|-------0-4-5-4-0-|
Eb|-2-2-2-----------|-2-2-2-----------|-2-2-2-----------|-2-2-2-----------|
    1 & 2 & 3 & 4 &   1 & 2 & 3 & 4 &   1 & 2 & 3 & 4 &   1 & 2 & 3 & 4 &


Verse 2:

   "Nervous..."
    A chord diagramF minorFm                A chord diagramF minorFm                A chord diagramDbDb                A chord diagramAbAb      A chord diagramEb MajorEb
Eb|-2-2---2---2---2-|---2---2---2---2-|---5---5---5---5-|---5---5---7---7-|
Bb|-2-2---2---2---2-|---2---2---2---2-|---7---7---7---7-|---5---5---9---9-|
Gb|-2-2---2---2---2-|---2---2---2---2-|---7---7---7---7-|---6---6---9---9-|
Db|-4-4---4---4---4-|---4---4---4---4-|---7---7---7---7-|---7---7---9---9-|
Ab|-4-4---4---4---4-|---4---4---4---4-|---5---5---5---5-|---7---7---7---7-|
Eb|-----------------|-----------------|-----------------|-----------------|
    1 & 2 & 3 & 4 &   1 & 2 & 3 & 4 &   1 & 2 & 3 & 4 &   1 & 2 & 3 & 4 &

    A chord diagramF minorFm                A chord diagramF minorFm                A chord diagramDbDb                A chord diagramAbAb      A chord diagramEb MajorEb
Eb|---2---2---2---2-|---2---2---2---2-|---5---5---5---5-|---5---5---7---7-|
Bb|---2---2---2---2-|---2---2---2---2-|---7---7---7---7-|---5---5---9---9-|
Gb|---2---2---2---2-|---2---2---2---2-|---7---7---7---7-|---6---6---9---9-|
Db|---4---4---4---4-|---4---4---4---4-|---7---7---7---7-|---7---7---9---9-|
Ab|---4---4---4---4-|---4---4---4---4-|---5---5---5---5-|---7---7---7---7-|
Eb|-----------------|-----------------|-----------------|-----------------|
    1 & 2 & 3 & 4 &   1 & 2 & 3 & 4 &   1 & 2 & 3 & 4 &   1 & 2 & 3 & 4 &

    A chord diagramF minorFm                A chord diagramF minorFm                A chord diagramDbDb                A chord diagramAbAb      A chord diagramEb MajorEb
Eb|---2---2---2---2-|---2---2---2---2-|---5---5---5---5-|---5---5---7---7-|
Bb|---2---2---2---2-|---2---2---2---2-|---7---7---7---7-|---5---5---9---9-|
Gb|---2---2---2---2-|---2---2---2---2-|---7---7---7---7-|---6---6---9---9-|
Db|---4---4---4---4-|---4---4---4---4-|---7---7---7---7-|---7---7---9---9-|
Ab|---4---4---4---4-|---4---4---4---4-|---5---5---5---5-|---7---7---7---7-|
Eb|-----------------|-----------------|-----------------|-----------------|
    1 & 2 & 3 & 4 &   1 & 2 & 3 & 4 &   1 & 2 & 3 & 4 &   1 & 2 & 3 & 4 &


Pre-Chorus:

   "Who said anything..."
    A chord diagramBb majorBb                        A chord diagramAbAb    A chord diagramEb MajorEb    A chord diagramDbDb    A chord diagramEb MajorEb
Eb|-------------------------|----0-----------2--------|
Bb|-4-----------------------|----2-----0-----3-----0--|
Gb|-4-----------------------|----2-----1-----2-----1--|
Db|-4-----------------------|----2-----2--0--------2--|
Ab|-2-----------------------|-0--------2-----------2--|
Eb|-------------------------|-------0-----------0-----|
    1  &  2  &  3  &  4  &    1  &  2  &  3  &  4  &


Chorus:

   "Wasted..."
    A chord diagramF minorFm        A chord diagramC majorC   A chord diagramDbDb                    A chord diagramAbAb                A chord diagramEb MajorEb
Eb|-----------------|-----------------|-----------------|-----------------|
Bb|-----------------|-----------------|-----------------|-----------------|
Gb|-----------6---7-|---7-----7-7-7---|-----------------|-9---9---9-9-9---|
Db|-4---4-----6---7-|---7-----7-7-7---|-7---------------|-9---9---9-9-9---|
Ab|-4---4-----4---5-|---5-----5-5-5---|-7---------------|-7---7---7-7-7---|
Eb|-2---2-----------|-----------------|-5---5-5-5-5-5-5-|-----------------|
    1 & 2 & 3 & 4 &   1 & 2 & 3 & 4 &   1 & 2 & 3 & 4 &   1 & 2 & 3 & 4 &

    A chord diagramF minorFm        A chord diagramC majorC   A chord diagramDbDb                    A chord diagramAbAb      A chord diagramEb MajorEb
Eb|-----------------|-----------------|-----------------|
Bb|-----------------|-----------------|-----------------|
Gb|-----------6---7-|---7-----7-7-7---|---------9-9-9---|
Db|-4---4-----6---7-|---7-----7-7-7---|-7-7-7---9-9-9---|
Ab|-4---4-----4---5-|---5-----5-5-5---|-7-7-7---7-7-7---|
Eb|-2---2-----------|-----------------|-5-5-5-----------|
    1 & 2 & 3 & 4 &   1 & 2 & 3 & 4 &   1 & 2 & 3 & 4 &


Bridge:

Eb|-----------------6---7---6-------|-----------------6---7---6-------|
Bb|-------------7---------------7---|-------------7---------------7---|
Gb|-8---8-8-8-----------------------|-8---8-8-8-----------------------|
Db|---------------------------------|---------------------------------|
Ab|---------------------------------|---------------------------------|
Eb|---------------------------------|---------------------------------|
    1 e & a 2 e & a 3 e & a 4 e & a   1 e & a 2 e & a 3 e & a 4 e & a

Eb|---------------------------------|---------------------------------|
Bb|---------------------------------|---------------------------------|
Gb|-8h9-----8h9-----8h9-----8h9-----|-8h9-----8h9-----8h9-----8h9-----|
Db|---------------------------------|---------------------------------|
Ab|---------------------------------|---------------------------------|
Eb|---------------------------------|---------------------------------|
    1 e & a 2 e & a 3 e & a 4 e & a   1 e & a 2 e & a 3 e & a 4 e & a

Eb|-----------------6---7---6-------|-----------------6---7---6-------|
Bb|-------------7---------------7---|-------------7---------------7---|
Gb|-8---8-8-8-----------------------|-8---8-8-8-----------------------|
Db|---------------------------------|---------------------------------|
Ab|---------------------------------|---------------------------------|
Eb|---------------------------------|---------------------------------|
    1 e & a 2 e & a 3 e & a 4 e & a   1 e & a 2 e & a 3 e & a 4 e & a

Eb|---------------------------------|---------------------------------|
Bb|---------------------------------|---------------------------------|
Gb|-8h9-----8h9-----8h9-----8h9-----|-8h9-----8h9-----8h9-----8h9-----|
Db|---------------------------------|---------------------------------|
Ab|---------------------------------|---------------------------------|
Eb|---------------------------------|---------------------------------|
    1 e & a 2 e & a 3 e & a 4 e & a   1 e & a 2 e & a 3 e & a 4 e & a

Eb|---6---6---6---6-|---6---6---6-6-6-|
Bb|---7---7---7---7-|---7---7---7-7-7-|
Gb|---8---8---8---8-|---8---8---8-8-8-|
Db|---8---8---8---8-|---8---8---8-8-8-|
Ab|---6---6---6---6-|---6---6---6-6-6-|
Eb|-----------------|-----------------|
    1 & 2 & 3 & 4 &   1 & 2 & 3 & 4 &


Pre-Chorus:

   "Who said anything..."
    A chord diagramAbAb    A chord diagramEb MajorEb    A chord diagramDbDb    A chord diagramEb MajorEb       A chord diagramAbAb    A chord diagramEb MajorEb    A chord diagramDbDb    A chord diagramEb MajorEb
Eb|----0-----------2--------|----0-----------2--------|
Bb|----2-----0-----3-----0--|----2-----0-----3-----0--|
Gb|----2-----1-----2-----1--|----2-----1-----2-----1--|
Db|----2-----2--0--------2--|----2-----2--0--------2--|
Ab|-0--------2-----------2--|-0--------2-----------2--|
Eb|-------0-----------0-----|-------0-----------0-----|
    1  &  2  &  3  &  4  &    1  &  2  &  3  &  4  &

    A chord diagramAbAb    A chord diagramEb MajorEb    A chord diagramDbDb    A chord diagramEb MajorEb      A chord diagramBb majorBb
Eb|----------------2--------|-0----------------------|
Bb|----2-----0-----3-----0--|-0----------------------|
Gb|----2-----1-----2-----1--|-4----------------------|
Db|----2-----2--0--------2--|-4----------------------|
Ab|-0--------2-----------2--|-2----------------------|
Eb|-------0-----------0-----|------------------------|
    1  &  2  &  3  &  4  &    1  &  2  &  3  &  4  &


Verse 3:

   "Dying..."
    A chord diagramF minorFm                A chord diagramF minorFm                A chord diagramDbDb                A chord diagramAbAb      A chord diagramEb MajorEb
Eb|-2-2---2---2---2-|---2---2---2---2-|---5---5---5---5-|---5---5---7---7-|
Bb|-2-2---2---2---2-|---2---2---2---2-|---7---7---7---7-|---5---5---9---9-|
Gb|-2-2---2---2---2-|---2---2---2---2-|---7---7---7---7-|---6---6---9---9-|
Db|-4-4---4---4---4-|---4---4---4---4-|---7---7---7---7-|---7---7---9---9-|
Ab|-4-4---4---4---4-|---4---4---4---4-|---5---5---5---5-|---7---7---7---7-|
Eb|-----------------|-----------------|-----------------|-----------------|
    1 & 2 & 3 & 4 &   1 & 2 & 3 & 4 &   1 & 2 & 3 & 4 &   1 & 2 & 3 & 4 &

    A chord diagramF minorFm                A chord diagramF minorFm                A chord diagramDbDb                A chord diagramAbAb      A chord diagramEb MajorEb
Eb|---2---2---2---2-|---2---2---2---2-|---5---5---5---5-|---5---5---7---7-|
Bb|---2---2---2---2-|---2---2---2---2-|---7---7---7---7-|---5---5---9---9-|
Gb|---2---2---2---2-|---2---2---2---2-|---7---7---7---7-|---6---6---9---9-|
Db|---4---4---4---4-|---4---4---4---4-|---7---7---7---7-|---7---7---9---9-|
Ab|---4---4---4---4-|---4---4---4---4-|---5---5---5---5-|---7---7---7---7-|
Eb|-----------------|-----------------|-----------------|-----------------|
    1 & 2 & 3 & 4 &   1 & 2 & 3 & 4 &   1 & 2 & 3 & 4 &   1 & 2 & 3 & 4 &

    A chord diagramF minorFm                A chord diagramF minorFm                A chord diagramDbDb                A chord diagramAbAb      A chord diagramEb MajorEb
Eb|---2---2---2---2-|---2---2---2---2-|---5---5---5---5-|---5---5---7---7-|
Bb|---2---2---2---2-|---2---2---2---2-|---7---7---7---7-|---5---5---9---9-|
Gb|---2---2---2---2-|---2---2---2---2-|---7---7---7---7-|---6---6---9---9-|
Db|---4---4---4---4-|---4---4---4---4-|---7---7---7---7-|---7---7---9---9-|
Ab|---4---4---4---4-|---4---4---4---4-|---5---5---5---5-|---7---7---7---7-|
Eb|-----------------|-----------------|-----------------|-----------------|
    1 & 2 & 3 & 4 &   1 & 2 & 3 & 4 &   1 & 2 & 3 & 4 &   1 & 2 & 3 & 4 &


Pre-Chorus:

   "Who said anything..."
    A chord diagramBb majorBb                        A chord diagramAbAb    A chord diagramEb MajorEb    A chord diagramDbDb    A chord diagramEb MajorEb
Eb|-------------------------|----0-----------2--------|
Bb|-4-----------------------|----2-----0-----3-----0--|
Gb|-4-----------------------|----2-----1-----2-----1--|
Db|-2-----------------------|----2-----2--0--------2--|
Ab|-2-----------------------|-0--------2-----------2--|
Eb|-------------------------|-------0-----------0-----|
    1  &  2  &  3  &  4  &    1  &  2  &  3  &  4  &


Chorus:

   "Wasted..."
    A chord diagramF minorFm        A chord diagramC majorC   A chord diagramDbDb                    A chord diagramAbAb                A chord diagramEb MajorEb
Eb|-----------------|-----------------|-----------------|-----------------|
Bb|-----------------|-----------------|-----------------|-----------------|
Gb|-----------6---7-|---7-----7-7-7---|-----------------|-9---9---9-9-9---|
Db|-4---4-----6---7-|---7-----7-7-7---|-7---------------|-9---9---9-9-9---|
Ab|-4---4-----4---5-|---5-----5-5-5---|-7---------------|-7---7---7-7-7---|
Eb|-2---2-----------|-----------------|-5---5-5-5-5-5-5-|-----------------|
    1 & 2 & 3 & 4 &   1 & 2 & 3 & 4 &   1 & 2 & 3 & 4 &   1 & 2 & 3 & 4 &

    A chord diagramF minorFm        A chord diagramC majorC   A chord diagramDbDb                    A chord diagramAbAb      A chord diagramEb MajorEb
Eb|-----------------|-----------------|-----------------|
Bb|-----------------|-----------------|-----------------|
Gb|-----------6---7-|---7-----7-7-7---|---------9-9-9---|
Db|-4---4-----6---7-|---7-----7-7-7---|-7-7-7---9-9-9---|
Ab|-4---4-----4---5-|---5-----5-5-5---|-7-7-7---7-7-7---|
Eb|-2---2-----------|-----------------|-5-5-5-----------|
    1 & 2 & 3 & 4 &   1 & 2 & 3 & 4 &   1 & 2 & 3 & 4 &

    A chord diagramF minorFm        A chord diagramC majorC   A chord diagramDbDb                    A chord diagramAbAb                A chord diagramEb MajorEb
Eb|-----------------|-----------------|-----------------|-----------------|
Bb|-----------------|-----------------|-----------------|-----------------|
Gb|-----------6---7-|---7-----7-7-7---|-----------------|-9---9---9-9-9---|
Db|-4---4-----6---7-|---7-----7-7-7---|-7---------------|-9---9---9-9-9---|
Ab|-4---4-----4---5-|---5-----5-5-5---|-7---------------|-7---7---7-7-7---|
Eb|-2---2-----------|-----------------|-5---5-5-5-5-5-5-|-----------------|
    1 & 2 & 3 & 4 &   1 & 2 & 3 & 4 &   1 & 2 & 3 & 4 &   1 & 2 & 3 & 4 &

    A chord diagramF minorFm        A chord diagramC majorC   A chord diagramDbDb                    A chord diagramAbAb      A chord diagramEb MajorEb
Eb|-----------------|-----------------|-----------------|
Bb|-----------------|-----------------|-----------------|
Gb|-----------6---7-|---7-----7-7-7---|---------9-9-9---|
Db|-4---4-----6---7-|---7-----7-7-7---|-7-7-7---9-9-9---|
Ab|-4---4-----4---5-|---5-----5-5-5---|-7-7-7---7-7-7---|
Eb|-2---2-----------|-----------------|-5-5-5-----------|
    1 & 2 & 3 & 4 &   1 & 2 & 3 & 4 &   1 & 2 & 3 & 4 &


Outro:

   "friend..."
    A chord diagramAbAb      A chord diagramEb MajorEb      A chord diagramDbDb      A chord diagramEb MajorEb        A chord diagramAbAb      A chord diagramEb MajorEb      A chord diagramDbDb      A chord diagramEb MajorEb
Eb|-----0-0-----0-0-----2-2-----0-0-|-----0-0-----0-0-----2-2-----0-0-|
Bb|-2---2-2-----0-0-3---3-3-----0-0-|-2---2-2-----0-0-3---3-3-----0-0-|
Gb|-2---2-2-1---1-1-2---2-2-1---1-1-|-2---2-2-1---1-1-2---2-2-1---1-1-|
Db|-2---2-2-2---2-2-0---0-0-2---2-2-|-2---2-2-2---2-2-0---0-0-2---2-2-|
Ab|-0-------2---2-2---------2---2-2-|-0-------2---2-2---------2---2-2-|
Eb|---------0---------------0-------|---------0---------------0-------|
    1 e & a 2 e & a 3 e & a 4 e & a   1 e & a 2 e & a 3 e & a 4 e & a

    A chord diagramAbAb      A chord diagramEb MajorEb      A chord diagramDbDb      A chord diagramEb MajorEb        A chord diagramBb majorBb
Eb|-----0-0-----0-0-----2-2-----0-0-|-0-------------------------------|
Bb|-2---2-2-----0-0-3---3-3-----0-0-|-0-------------------------------|
Gb|-2---2-2-1---1-1-2---2-2-1---1-1-|-4-------------------------------|
Db|-2---2-2-2---2-2-0---0-0-2---2-2-|-4-------------------------------|
Ab|-0-------2---2-2---------2---2-2-|-2-------------------------------|
Eb|---------0---------------0-------|---------------------------------|
    1 e & a 2 e & a 3 e & a 4 e & a   1 e & a 2 e & a 3 e & a 4 e & a

***********************************

| H   Hammer-on

***********************************

↓ Add and view comments below ↓

What do you think about this song and these tabs?

Add your comments, questions, rant or a thumbs up below.

Almost there ...

Sign in to get your own page with links to favourite songs and more. You are just one click away...

Login with Facebook Login with Google