Log in

One click and you are in

Login with Facebook Login with Google

Why sign up and log in

Guitar Tabs Explorer
Smash Mouth bass tabs for All star

Bass tabs

Play this three times…(drums kick in at the end of the second time)
G|-----------------|-----------------|-----------------|-----------------|
D|-----------------|-----------------|-----------------|-----------------|
A|-------3-4-----6-|-------1-2-----4-|-------3-4-----6-|-------1-2-----4-|
E|-2---------------|-4---------------|-2---------------|-4---------------|
  1 & 2 & 3 & 4 &  1 & 2 & 3 & 4 &  1 & 2 & 3 & 4 &  1 & 2 & 3 & 4 &

	Then play this once…
G|-----------------|-----------------|-----------------|-----------------|
D|-----------------|-----------------|-----------------|-----------------|
A|-------3-4-----6-|-------1-2-----4-|-------3-4-----6-|-------1-2-------|
E|-2---------------|-4---------------|-2---------------|-4-----------0-1-|
  1 & 2 & 3 & 4 &  1 & 2 & 3 & 4 &  1 & 2 & 3 & 4 &  1 & 2 & 3 & 4 &

 	Chorus…
G|-----------------|-----------------|-----------------|-----------------|
D|-----------------|-----------------|-----------------|-----------------|
A|---------2-2s--2-|-3-3s--3-2-2s--2-|---------2-2s--2-|-3-3s--3-2-2s--2-|
E|-2-2s--2---------|-----------------|-2-2s--2---------|-----------------|
  1 & 2 & 3 & 4 &  1 & 2 & 3 & 4 &  1 & 2 & 3 & 4 &  1 & 2 & 3 & 4 &

G|-----------------|-----------------|-----------------|-----------------|
D|-----------------|-----------------|-----------------|-----------------|
A|---------2-2s--2-|-3-3s--3-2-2s--2-|-----------------|-2s--------------|
E|-2-2s--2---------|-----------------|-2-2s--2-0-0s--0-|-----------------|
  1 & 2 & 3 & 4 &  1 & 2 & 3 & 4 &  1 & 2 & 3 & 4 &  1 & 2 & 3 & 4 &

	Back to the first riffs…play this once…
G|-----------------|-----------------|-----------------|-----------------|
D|-----------------|-----------------|-----------------|-----------------|
A|-------3-4-----6-|-------1-2-----4-|-------3-4-----6-|-------1-2-----4-|
E|-2---------------|-4---------------|-2---------------|-4---------------|
  1 & 2 & 3 & 4 &  1 & 2 & 3 & 4 &  1 & 2 & 3 & 4 &  1 & 2 & 3 & 4 &

	Then play this once…
G|-----------------|-----------------|-----------------|-----------------|
D|-----------------|-----------------|-----------------|-----------------|
A|-------3-4-----6-|-------1-2-----4-|-------3-4-----6-|-------1-2-------|
E|-2---------------|-4---------------|-2---------------|-4-----------0-1-|
  1 & 2 & 3 & 4 &  1 & 2 & 3 & 4 &  1 & 2 & 3 & 4 &  1 & 2 & 3 & 4 &

	Chorus again…
G|-----------------|-----------------|-----------------|-----------------|
D|-----------------|-----------------|-----------------|-----------------|
A|---------2-2s--2-|-3-3s--3-2-2s--2-|---------2-2s--2-|-3-3s--3-2-2s--2-|
E|-2-2s--2---------|-----------------|-2-2s--2---------|-----------------|
  1 & 2 & 3 & 4 &  1 & 2 & 3 & 4 &  1 & 2 & 3 & 4 &  1 & 2 & 3 & 4 &

G|-----------------|-----------------|-----------------|-----------------|
D|-----------------|-----------------|-----------------|-----------------|
A|---------2-2s--2-|-3-3s--3-2-2s--2-|-----------------|-2s--------------|
E|-2-2s--2---------|-----------------|-2-2s--2-0-0s--0-|-----------------|
  1 & 2 & 3 & 4 &  1 & 2 & 3 & 4 &  1 & 2 & 3 & 4 &  1 & 2 & 3 & 4 &

	Filler…
G|-----------------|-----------------|-----------------|-----------------|
D|-----------------|-----------------|-----------------|-----------------|
A|---------2-----2-|-3-------2-------|---------2-----2-|-3-------2-------|
E|-2---------------|-----------------|-2---------------|-----------------|
  1 & 2 & 3 & 4 &  1 & 2 & 3 & 4 &  1 & 2 & 3 & 4 &  1 & 2 & 3 & 4 &

G|-----------------|-----------------|-----------------|-----------------|
D|-----------------|-----------------|-----------------|-----------------|
A|---------2-----2-|-3-------2-------|---------2-----2-|-3---------------|
E|-2---------------|-----------------|-2---------------|-------------0-1-|
  1 & 2 & 3 & 4 &  1 & 2 & 3 & 4 &  1 & 2 & 3 & 4 &  1 & 2 & 3 & 4 &

	And back to the chorus…
G|-----------------|-----------------|-----------------|-----------------|
D|-----------------|-----------------|-----------------|-----------------|
A|---------2-2s--2-|-3-3s--3-2-2s--2-|---------2-2s--2-|-3-3s--3-2-2s--2-|
E|-2-2s--2---------|-----------------|-2-2s--2---------|-----------------|
  1 & 2 & 3 & 4 &  1 & 2 & 3 & 4 &  1 & 2 & 3 & 4 &  1 & 2 & 3 & 4 &

						Quick change to 1st riff…
G|-----------------|-----------------|-----------------|-----------------|
D|-----------------|-----------------|-----------------|-----------------|
A|---------2-2s--2-|-3-3s--3-2-2s--2-|-----------------|-------3-4-----6-|
E|-2-2s--2---------|-----------------|-2-2s--2-0-0s----|-2---------------|
  1 & 2 & 3 & 4 &  1 & 2 & 3 & 4 &  1 & 2 & 3 & 4 &  1 & 2 & 3 & 4 &

G|-----------------|-----------------|-----------------|-----------------|
D|-----------------|-----------------|-----------------|-----------------|
A|-------1-2-----4-|-------3-4-----6-|-------1-2-----4-|-------3-4-----6-|
E|-4---------------|-2---------------|-4---------------|-2---------------|
  1 & 2 & 3 & 4 &  1 & 2 & 3 & 4 &  1 & 2 & 3 & 4 &  1 & 2 & 3 & 4 &

					Riff change coming…new chorus…
G|-----------------|-----------------|-----------------|-----------------|
D|-----------------|-----------------|-----------------|-----------------|
A|-------1-2-----4-|-------3-4-----6-|-----------------|---------2s----2-|
E|-4---------------|-2---------------|-4---------------|-2s----2---------|
  1 & 2 & 3 & 4 &  1 & 2 & 3 & 4 &  1 & 2 & 3 & 4 &  1 & 2 & 3 & 4 &

G|-----------------|-----------------|-----------------|-----------------|
D|-----------------|-----------------|-----------------|-----------------|
A|-3s----3-2s----2-|---------2s----2-|-3s----3-2s----2-|---------2s----2-|
E|-----------------|-2s----2---------|-----------------|-2s----2---------|
  1 & 2 & 3 & 4 &  1 & 2 & 3 & 4 &  1 & 2 & 3 & 4 &  1 & 2 & 3 & 4 &

G|-----------------|-----------------|-----------------|-----------------|
D|-----------------|-----------------|-----------------|-----------------|
A|-3s----3-2s----2-|---------2s----2-|-3s----3-2s------|---------2-2s--2-|
E|-----------------|-2s----2---------|-----------------|-2-2s--2---------|
  1 & 2 & 3 & 4 &  1 & 2 & 3 & 4 &  1 & 2 & 3 & 4 &  1 & 2 & 3 & 4 &

	Play this twice…
G|-----------------|-----------------|-----------------|-----------------|
D|-----------------|-----------------|-----------------|-----------------|
A|-3-3s--3-2-2s--2-|---------2-2s--2-|-3-3s--3-2-2s--2-|---------2-2s--2-|
E|-----------------|-2-2s--2---------|-----------------|-2-2s--2---------|
  1 & 2 & 3 & 4 &  1 & 2 & 3 & 4 &  1 & 2 & 3 & 4 &  1 & 2 & 3 & 4 &

	Then play this – last line…
G|-----------------|-----------------|-----------------|-----------------|
D|-----------------|-----------------|-----------------|-----------------|
A|-3-3s--3-2-2s--2-|-----------------|-2s--------------|-----------------|
E|-----------------|-2-2s----0-0s--0-|-----------------|-----------------|
  1 & 2 & 3 & 4 &  1 & 2 & 3 & 4 &  1 & 2 & 3 & 4 &  1 & 2 & 3 & 4 &

Other versions of All Star

All star (Ver. 2)Bass tabs
All star (Ver. 3)Bass tabs

Almost there ...

Sign in to get your own page with links to favourite songs and more. You are just one click away...

Login with Facebook Login with Google