Log in

One click and you are in

Login with Facebook Login with Google

Why sign up and log in

Guitar Tabs Explorer
Smash Mouth bass tabs for All star (Ver. 3)

Bass tabs

Tuning: Standard (E A D G)

Difficulty: Intermediate


Intro:


 Verse :

  G|------------------------------------------|
x5 D|------------------------------------------|
  A|----3-4--6----1-2--4----3-4--6----1-2-----|
  E|-2---------4---------2---------4------0-1-|

 Pre Chorus(Type 1):

  G|-----------------------------------------|
x1 D|-----------------------------------------|
  A|----3-4--6----1-2--4----3-4--6----1-2----|
  E|-2---------4---------2---------4---------|

 Chorus :

  G|-------------------------------------------|
x3 D|-------------------------------------------|
  A|-------------2-2---2---3-3---33-2--2---2---|
  E|-2-2--22--22-------------------------------|

  G|--------------------------|
x1 D|--------------------------|
  A|---------------------2----|
  E|-2-2--22-0-0---0-0--------|

 Break:

  G|---------------------------|
x4 D|---------------------------|
  A|-----2---2--3--2-----------|
  E|-2-------------------------|

  G|--------------------------|
x1 D|--------------------------|
  A|-----2---2--3--2----------|
  E|-2-------------------0--1-|

 Pre Chorus(Type 2):

  G|--------------------|
x3 D|--------------------|
  A|-----2~2-3~3-2~2----|
  E|-2~2----------------|

  G|--------------------|
 x1 D|--------------------|
  A|-----2~2-3~3-2------|
  E|-2~2------------0-1-|

 Order:

|---------|--------------------|---------|
|-Verse 1-|-Pre-Chorus(Type 1)-|Chorus-1-|
|---------|--------------------|---------|
|---------|--------------------|---------|

|---------|--------------------|----------|
|-Verse-2-|-Pre-Chorus(Type 1)-|-Chorus-2-|
|---------|--------------------|----------|
|---------|--------------------|----------|

|-------|---------|---------|
|-Break-|Chorus-3-|-Verse-3-|
|-------|---------|---------|
|-------|---------|---------|-

|-------------------|----------|
|Pre-Chorus(Type 2)-|-Chorus-4-|
|-------------------|----------|
|-------------------|----------|

|*********************************
|~ begin-end tie|
**********************************

Other versions of All Star

All starBass tabs
All star (Ver. 2)Bass tabs

Almost there ...

Sign in to get your own page with links to favourite songs and more. You are just one click away...

Login with Facebook Login with Google