Search tabs and chords

Search for song, artist or band

Log in

One click and you are in

Login with Facebook Login with Google

Why sign up and log in

Guitar Tabs Explorer
Small Faces guitar tabs for Tin soldier (Ver. 2)

Guitar tabs with lyrics

TIN SOLDIER

As recorded by The Small Faces
(From the 1969 Album THE AUTUMN STONE)

Words and Music by Steve Marriott & Ronnie Lane

Transcribed by Slowhand
Gtr I (E chord diagramEE A chord diagramAA D chord diagramDD G chord diagramGG B chord diagramBB E chord diagramEE) - 'Ian McLagan - Electric Piano'
Gtr II (E chord diagramEE A chord diagramAA D chord diagramDD G chord diagramGG B chord diagramBB E chord diagramEE) - 'Steve Marriott - Electric Guitar'
Gtr III (E chord diagramEE A chord diagramAA D chord diagramDD G chord diagramGG B chord diagramBB E chord diagramEE) - 'Steve Marriott - Electric Guitar '


 Intro
  Q=114
  E chord diagramEE          G5 chord diagramG5G5         G chord diagramGG/D chord diagramDD D chord diagramDD          AsusA            E chord diagramEE
 4/4
  Gtr I (El. Piano arr. for Gtr.)
  W          W           E chord diagramEE.  S  +E   E chord diagramEE  E chord diagramEE.  S  +E   E chord diagramEE   W
|-7--------|----------|-------------------------------|-7----|
|-9--------|-3--------|-12--10-(10)----15--14-(14)----|-9----|
|-9--------|----------|-12--11-(11)-11-14----------14-|-9----|
|----------|-5--------|-12-------------14-------------|------|
|-7--------|----------|----------------12-------------|-7----|
|-0--------|-3--------|-10----------------------------|-0----|
                         H chord diagramHH              H chord diagramHH


  E chord diagramEE                  G chord diagramGG                   D chord diagramDD         A chord diagramAA
  Gtr II (Clean El. Gtr.)
  Q  E chord diagramEE E chord diagramEE +E  E chord diagramEE E chord diagramEE E chord diagramEE   E chord diagramEE E chord diagramEE E chord diagramEE E chord diagramEE +E  E chord diagramEE E chord diagramEE E chord diagramEE   E chord diagramEE S S E chord diagramEE E chord diagramEE E chord diagramEE Q  E chord diagramEE
|------------------|-------------------|---2h3p2----------|
|------------------|-------------------|---------3------0-|
|------1-(1)-------|-------0-(0)-------|------------------|
|----2-------2---2-|-----0-------0---0-|-0-----------0----|
|--------------2---|---2-----------2---|-----------0------|
|-0----------------|-3-----------------|------------------|
  W                  W                   H chord diagramHH         H chord diagramHH

  E chord diagramEE
  Gtrs II, III (El. Gtr. w/ light dist.)
  a E chord diagramEE E chord diagramEE +E  S S E chord diagramEE a E chord diagramEE Q    Q  E chord diagramEE E chord diagramEE +E  E chord diagramEE E chord diagramEE E chord diagramEE
|------------------------|------------------|
|------------------------|------------------|
|------------------------|------1-(1)-------|
|-----0-(0)-0h2-0-----5--|----2-------2---2-|
|-0h2-------------0h2----|--------------2---|
|------------------------|-0----------------|
                           W


  G chord diagramGG                   D chord diagramDD         A chord diagramAA
  E chord diagramEE E chord diagramEE E chord diagramEE E chord diagramEE +E  E chord diagramEE E chord diagramEE E chord diagramEE   E chord diagramEE S S E chord diagramEE E chord diagramEE E chord diagramEE E chord diagramEE E chord diagramEE E chord diagramEE
|-------3-(3)-----3-|---2h3p2-----0------|
|-----------------0-|---------3-----2----|
|-----0-------0---0-|-----------------2--|
|---0---------------|-0------------------|
|---------------2---|-----------0--------|
|-3-----------------|--------------------|
  W                   H chord diagramHH         H chord diagramHH


  E chord diagramEE                                     G chord diagramGG                   D chord diagramDD       A chord diagramAA
  Q  E chord diagramEE. S E chord diagramEE S S Q    Q  E chord diagramEE E chord diagramEE +E  E chord diagramEE E chord diagramEE E chord diagramEE   E chord diagramEE E chord diagramEE E chord diagramEE E chord diagramEE +E  E chord diagramEE E chord diagramEE E chord diagramEE   E chord diagramEE E chord diagramEE E chord diagramEE E chord diagramEE E chord diagramEE E chord diagramEE E chord diagramEE E chord diagramEE
|------------------|------------------|-------3-(3)-----3-|---2-------0-----|
|------------------|------------------|-----------------0-|-----3-------2---|
|------------------|------1-(1)-------|-----0-------0---0-|-------2-------2-|
|----2--2-------0--|----2-------2---2-|---0---------------|-0---------------|
|----0--0---0h2----|--------------2---|---------------2---|---------0-------|
|-0-------0--------|-0----------------|-3-----------------|-----------------|
                     W                  W                   H chord diagramHH       H chord diagramHH


  E chord diagramEE                                        G chord diagramGG                D chord diagramDD DsDs4A5
  E chord diagramEE S S S S E chord diagramEE. S E chord diagramEE S S E chord diagramEE   Q  Q  Q  E chord diagramEE. S   Q  Q  Q  S S E chord diagramEE   E chord diagramEE E chord diagramEE Q  Q  E chord diagramEE E chord diagramEE
|------------------------|-0--0--0--0--0-|-3--3--3--3-3-3-|-2-3-2----------||
|---0-0---0-0--0-0---0-0-|-0--0--0--0--0-|-0--0--0--0-0-0-|-3-3-3----------||
|---1-1---1-1--1-1---1-1-|-1--1--1--1--1-|-0--0--0--0-0-0-|-2-2-2--2--2-2--||
|---2-2---2-2--2-2---2-2-|-2--2--2--2--2-|-0--0--0--0-0-0-|-0-0-0--2--2-2--||
|------------------------|-2--2--2--2--2-|-2--2--2--2-2-2-|--------0--0-0--||
|-0----------------------|-0--0--0--0--0-|-3--3--3--3-3-3-|----------------||


 1st & 2nd Verses
  $
  E chord diagramEE                  G chord diagramGG                   D chord diagramDD       A chord diagramAA
  Q  E chord diagramEE E chord diagramEE +E  E chord diagramEE E chord diagramEE E chord diagramEE   E chord diagramEE E chord diagramEE E chord diagramEE E chord diagramEE +E  E chord diagramEE E chord diagramEE E chord diagramEE   E chord diagramEE E chord diagramEE E chord diagramEE E chord diagramEE E chord diagramEE E chord diagramEE E chord diagramEE E chord diagramEE
|------------------|-------------------|---3-2-----0-----|
|------------------|-------0-(0)-------|-------3-----2---|
|------1-(1)-------|-----0-------0---0-|---------------2-|
|----2-------2---2-|---0-----------0---|-0---------------|
|--------------2---|-------------------|---------0-------|
|-0----------------|-3-----------------|-----------------|
  W                  W                   H chord diagramHH       H chord diagramHH


  E chord diagramEE
  E chord diagramEE E chord diagramEE S S E chord diagramEE S S E chord diagramEE S S S S   Q  E chord diagramEE E chord diagramEE +E  E chord diagramEE E chord diagramEE E chord diagramEE
|-------------------------|------------------|
|-------------------------|------------------|
|-------------------------|------1-(1)-------|
|-----2-----0h2-0---------|----2-------2---2-|
|---2---0h2-------0h2-0h2-|--------------2---|
|-0-----------------------|-0----------------|
  W                         W


  G chord diagramGG                     D chord diagramDD       A chord diagramAA
  E chord diagramEE E chord diagramEE E chord diagramEE E chord diagramEE +E  E chord diagramEE S S E chord diagramEE   E chord diagramEE E chord diagramEE E chord diagramEE E chord diagramEE E chord diagramEE E chord diagramEE E chord diagramEE E chord diagramEE
|-------3-(3)---------|---3-2-----0-----|
|---------------------|-------3-----2---|
|-----0-------0-----0-|---------------2-|
|---0-------------0---|-0---------------|
|---------------2-----|---------0-------|
|-3-------------------|-----------------|
  W                     H chord diagramHH       H chord diagramHH


                   Pre-Chorus
  C#m chord diagramC#mC#m               D chord diagramDD              F5 chord diagramF5F5             A chord diagramAA
  E chord diagramEE E chord diagramEE E chord diagramEE E chord diagramEE +H        Q  Q  Q  E chord diagramEE E chord diagramEE   Q  Q  Q  E chord diagramEE E chord diagramEE   Q  Q  Q  E chord diagramEE E chord diagramEE
|---4------------||-2--2--2--2-2-|--------------|---------------|
|-----5----------||-3--3--3--3-3-|--------------|-2--2--2--2-2--|
|----------------||-2--2--2--2-2-|--------------|-2--2--2--2-2--|
|-6-----6-(6)----||-0--0--0--0-0-|-3--3--3--3-3-|-2--2--2--2-2--|
|-4--------------||--------------|-3--3--3--3-3-|-0--0--0--0-0--|
|----------------||--------------|-1--1--1--1-1-|---------------|


                                                        Chorus
  F#5 chord diagramF#5F#5     D chord diagramDD         A chord diagramAA                   F#5 chord diagramF#5F#5     D chord diagramDD        E chord diagramEE    D chord diagramDD/E chord diagramEE
                                                |-3-|
  E chord diagramEE E chord diagramEE E chord diagramEE E chord diagramEE E chord diagramEE E chord diagramEE E chord diagramEE E chord diagramEE   Q  E chord diagramEE. S S S E chord diagramEE E chord diagramEE E chord diagramEE   E chord diagramEE E chord diagramEE E chord diagramEE E chord diagramEE Q Q Q    Q  E chord diagramEE E chord diagramEE +Q   E chord diagramEE E chord diagramEE
|---------2-2-2-2-|-------------------|---------2-2-2-||------------------|
|---------3-3-3-3-|-2--2--2-2-2-2-2-2-|---------3-3-3-||-9--9-7-(7)--7-7--|
|---------2-2-2-2-|-2--2--2-2-2-2-2-2-|---------2-2-2-||-9--9-7-(7)--7-7--|
|-4-4-4-4-0-0-0-0-|-2--2--2-2-2-2-2-2-|-4-4-4-4-0-0-0-||-9--9-7-(7)--7-7--|
|-4-4-4-4---------|-0--0--0-0-0-0-0-0-|-4-4-4-4-------||-7--7-7-(7)--7-7--|
|-2-2-2-2---------|-------------------|-2-2-2-2-------||-0--0-0-(0)--0-0--|


  EsusE       E5 chord diagramE5E5      E chord diagramEE    D chord diagramDD/E chord diagramEE          EsusE       E5 chord diagramE5E5      E chord diagramEE    D chord diagramDD/E chord diagramEE
  E chord diagramEE E chord diagramEE E chord diagramEE E chord diagramEE +E  E chord diagramEE E chord diagramEE E chord diagramEE   Q  E chord diagramEE E chord diagramEE +Q   E chord diagramEE E chord diagramEE   E chord diagramEE E chord diagramEE E chord diagramEE E chord diagramEE +E  E chord diagramEE E chord diagramEE E chord diagramEE   Q  E chord diagramEE E chord diagramEE +Q   E chord diagramEE E chord diagramEE
|-0-0-0-0-(0)-------|-----------------|-0-0-0-0-(0)-------|------------------|
|-0-0-0-0-(0)-------|-9--9-7-(7)--7-7-|-0-0-0-0-(0)-------|-9--9-7-(7)--7-7--|
|-2-2-1-1-(1)-------|-9--9-7-(7)--7-7-|-2-2-1-1-(1)-------|-9--9-7-(7)--7-7--|
|-2-2-2-2-(2)-2-2-2-|-9--9-7-(7)--7-7-|-2-2-2-2-(2)-2-2-2-|-9--9-7-(7)--7-7--|
|-2-2-2-2-(2)-2-2-2-|-7--7-7-(7)--7-7-|-2-2-2-2-(2)-2-2-2-|-7--7-7-(7)--7-7--|
|-0-0-0-0-(0)-0-0-0-|-0--0-0-(0)--0-0-|-0-0-0-0-(0)-0-0-0-|-0--0-0-(0)--0-0--|


                               To Coda
  EsusE         Eb5 chord diagramEb5Eb5   D chord diagramDD                  C chord diagramCC         B chord diagramBB
  E chord diagramEE E chord diagramEE E chord diagramEE E chord diagramEE +E  E chord diagramEE E chord diagramEE E chord diagramEE   E chord diagramEE E chord diagramEE E chord diagramEE E chord diagramEE E chord diagramEE E chord diagramEE E chord diagramEE E chord diagramEE    E chord diagramEE E chord diagramEE E chord diagramEE S S S S E chord diagramEE E chord diagramEE E chord diagramEE
|-0-0-0-0-(0)-0-----|------------------|---------------------|
|-0-0-0-0-(0)-0-----|-7-7-7-7-7-7-7-7--|-5-5-5-x-x-4-4-4-4---|
|-2-2-1-1-(1)-1-8-8-|-7-7-7-7-7-7-7-7--|-5-5-5-x-x-4-4-4-4---|
|-2-2-2-2-(2)-2-8-8-|-7-7-7-7-7-7-7-7--|-5-5-5-x-x-4-4-4-4---|
|-2-2-2-2-(2)-2-6-6-|-5-5-5-5-5-5-5-5--|-3-3-3-x-x-2-2-2-2---|
|-0-0-0-0-(0)-0-----|------------------|-------------------0-|


                             Bridge
  E5 chord diagramE5E5            N.C.          E5 chord diagramE5E5    G5 chord diagramG5G5
                        ~
  E chord diagramEE E chord diagramEE Q  H chord diagramHH      H chord diagramHH    Q  Q     Q  Q  E chord diagramEE E chord diagramEE Q
|-------------|------------||--------------|
|-------------|------------||--------------|
|-------------|------------||--------------|
|-------------|---------5--||-2-----5-5----|
|-2-----------|------------||-2-----5-5----|
|-0-----------|------------||-0-----3-3----|


  A5 chord diagramA5A5    G5 chord diagramG5G5       E5 chord diagramE5E5    G5 chord diagramG5G5       A5 chord diagramA5A5    G5 chord diagramG5G5       E5 chord diagramE5E5    G5 chord diagramG5G5
  Q  Q  E chord diagramEE E chord diagramEE Q    Q  Q  E chord diagramEE E chord diagramEE Q    Q  Q  E chord diagramEE E chord diagramEE Q    Q  Q  E chord diagramEE E chord diagramEE Q
|--------------|--------------|--------------|---------------|
|--------------|--------------|--------------|---------------|
|-2------------|--------------|-2------------|---------------|
|-2-----5-5----|-2-----5-5----|-2-----5-5----|-2-----5-5-----|
|-0-----5-5----|-2-----5-5----|-0-----5-5----|-2-----5-5-----|
|-------3-3----|-0-----3-3----|-------3-3----|-0-----3-3-----|


  A5 chord diagramA5A5    G5 chord diagramG5G5       E5 chord diagramE5E5    G5 chord diagramG5G5       A5 chord diagramA5A5    G5 chord diagramG5G5       E5 chord diagramE5E5    G5 chord diagramG5G5
  Q  Q  E chord diagramEE E chord diagramEE Q    Q  Q  E chord diagramEE E chord diagramEE Q    Q  Q  E chord diagramEE E chord diagramEE Q    Q  Q  E chord diagramEE E chord diagramEE Q
|--------------|--------------|--------------|---------------|
|--------------|--------------|--------------|---------------|
|-2------------|--------------|-2------------|---------------|
|-2-----5-5----|-2-----5-5----|-2-----5-5----|-2-----5-5-----|
|-0-----5-5----|-2-----5-5----|-0-----5-5----|-2-----5-5-----|
|-------3-3----|-0-----3-3----|-------3-3----|-0-----3-3-----|


                 Chorus
  A5 chord diagramA5A5    G5 chord diagramG5G5        E chord diagramEE    D chord diagramDD/E chord diagramEE          EsusE       E5 chord diagramE5E5      E chord diagramEE    D chord diagramDD/E chord diagramEE
  Q  Q  E chord diagramEE E chord diagramEE Q     Q  E chord diagramEE E chord diagramEE +Q   E chord diagramEE E chord diagramEE   E chord diagramEE E chord diagramEE E chord diagramEE E chord diagramEE +E  E chord diagramEE E chord diagramEE E chord diagramEE   Q  E chord diagramEE E chord diagramEE +Q   E chord diagramEE E chord diagramEE
|--------------||-----------------|-0-0-0-0-(0)-------|------------------|
|--------------||-9--9-7-(7)--7-7-|-0-0-0-0-(0)-------|-9--9-7-(7)--7-7--|
|-2------------||-9--9-7-(7)--7-7-|-2-2-1-1-(1)-------|-9--9-7-(7)--7-7--|
|-2-----5-5----||-9--9-7-(7)--7-7-|-2-2-2-2-(2)-2-2-2-|-9--9-7-(7)--7-7--|
|-0-----5-5----||-7--7-7-(7)--7-7-|-2-2-2-2-(2)-2-2-2-|-7--7-7-(7)--7-7--|
|-------3-3----||-0--0-0-(0)--0-0-|-0-0-0-0-(0)-0-0-0-|-0--0-0-(0)--0-0--|


  EsusE       E5 chord diagramE5E5      E chord diagramEE    D chord diagramDD/E chord diagramEE          Esus4 chord diagramEsus4Esus4 E chord diagramEE       Eb5 chord diagramEb5Eb5   D chord diagramDD
  E chord diagramEE E chord diagramEE E chord diagramEE E chord diagramEE +E  E chord diagramEE E chord diagramEE E chord diagramEE   Q  E chord diagramEE E chord diagramEE +Q   E chord diagramEE E chord diagramEE   E chord diagramEE E chord diagramEE E chord diagramEE E chord diagramEE +E  E chord diagramEE E chord diagramEE E chord diagramEE   E chord diagramEE E chord diagramEE E chord diagramEE E chord diagramEE E chord diagramEE E chord diagramEE E chord diagramEE E chord diagramEE
|-0-0-0-0-(0)-------|-----------------|-0-0-0-0-(0)-0-----|------------------|
|-0-0-0-0-(0)-------|-9--9-7-(7)--7-7-|-0-0-0-0-(0)-0-----|-7-7-7-7-7-7-7-7--|
|-2-2-1-1-(1)-------|-9--9-7-(7)--7-7-|-2-2-1-1-(1)-1-8-8-|-7-7-7-7-7-7-7-7--|
|-2-2-2-2-(2)-2-2-2-|-9--9-7-(7)--7-7-|-2-2-2-2-(2)-2-8-8-|-7-7-7-7-7-7-7-7--|
|-2-2-2-2-(2)-2-2-2-|-7--7-7-(7)--7-7-|-2-2-2-2-(2)-2-6-6-|-5-5-5-5-5-5-5-5--|
|-0-0-0-0-(0)-0-0-0-|-0--0-0-(0)--0-0-|-0-0-0-0-(0)-0-----|------------------|


                         Outro
          D chord diagramDD.S. al Coda &
  C chord diagramCC         B chord diagramBB             D chord diagramDD                 Esus4E    E5 chord diagramE5E5    EsEs4D
  E chord diagramEE E chord diagramEE E chord diagramEE S S S S E chord diagramEE E chord diagramEE E chord diagramEE     E chord diagramEE E chord diagramEE E chord diagramEE E chord diagramEE E chord diagramEE E chord diagramEE E chord diagramEE E chord diagramEE   Q.   E chord diagramEE Q  E chord diagramEE E chord diagramEE   E chord diagramEE Q  E chord diagramEE +E  E chord diagramEE E chord diagramEE E chord diagramEE
|----------------------||-----------------|-0----0-0------|-0-0--2-(2)-2-2-2-|
|-5-5-5-x-x-4-4-4-4----||-7-7-7-7-7-7-7-7-|-0----0-0------|-0-0--3-(3)-3-3-3-|
|-5-5-5-x-x-4-4-4-4----||-7-7-7-7-7-7-7-7-|-2----1-1------|-2-1--2-(2)-2-2-2-|
|-5-5-5-x-x-4-4-4-4----||-7-7-7-7-7-7-7-7-|-2----2-2--2-2-|-2-2--0-(0)-0-0-0-|
|-3-3-3-x-x-2-2-2-2----||-5-5-5-5-5-5-5-5-|-2----2-2--2-2-|-2-2--------------|
|-------------------0--||-----------------|-0----0-0--0-0-|-0-0--------------|


  A chord diagramAA                B chord diagramBB                 C chord diagramCC
  Q  E chord diagramEE E chord diagramEE E chord diagramEE E chord diagramEE E chord diagramEE E chord diagramEE   E chord diagramEE E chord diagramEE E chord diagramEE E chord diagramEE E chord diagramEE E chord diagramEE E chord diagramEE E chord diagramEE   E chord diagramEE E chord diagramEE E chord diagramEE E chord diagramEE E chord diagramEE E chord diagramEE E chord diagramEE E chord diagramEE
|----------------|-----------------|-----------------|
|-2--2-2-2-2-2-2-|-4-4-4-4-4-4-4-4-|-5-5-5-5-5-5-5-5-|
|-2--2-2-2-2-2-2-|-4-4-4-4-4-4-4-4-|-5-5-5-5-5-5-5-5-|
|-2--2-2-2-2-2-2-|-4-4-4-4-4-4-4-4-|-5-5-5-5-5-5-5-5-|
|-0--0-0-0-0-0-0-|-2-2-2-2-2-2-2-2-|-3-3-3-3-3-3-3-3-|
|----------------|-----------------|-----------------|


  D chord diagramDD                 Esus4E
  E chord diagramEE E chord diagramEE E chord diagramEE E chord diagramEE E chord diagramEE E chord diagramEE E chord diagramEE E chord diagramEE   Q.   E chord diagramEE H chord diagramHH      +W           +W
|-2-2-2-2-2-2-2-2-|-0----0-0----|-(0)--------|-(0)----*|
|-3-3-3-3-3-3-3-3-|-0----0-0----|-(0)--------|-(0)----*|
|-2-2-2-2-2-2-2-2-|-2----1-1----|-(1)--------|-(1)----*|
|-0-0-0-0-0-0-0-0-|-2----2-2----|-(2)--------|-(2)----*|
|-----------------|-2----2-2----|-(2)--------|-(2)----*|
|-----------------|-0----0-0----|-(0)--------|-(0)----*|


Duration Legend
---------------
W - whole; H chord diagramHH - half; Q - quarter; E chord diagramEE - 8th; S - 16th; T - 32nd; X - 64th; a - acciaccatura
+ - note tied to previous; . - note dotted; .. - note double dotted
Uncapitalized letters represent notes that are staccato (1/2 duration)
Irregular groupings are notated above the duration line
Duration letters will always appear directly above the note/fret number it represents the
duration for.  Duration letters with no fret number below them represent rests.  Multi-
bar rests are notated in the form Wxn, where n is the number of bars to rest for.  Low
melody durations appear below the staff

Tablature Legend
----------------
 h   - hammer-on
 p   - pull-off
 b   - bend
 pb  - pre-bend
 r   - bend release (if no number after the r, then release immediately)
 /\  - slide into or out of (from/to "nowhere")
 s   - legato slide
 S   - shift slide
  - natural harmonic
[n]  - artificial harmonic
n(n) - tapped harmonic
 ~   - vibrato
 tr  - trill
 T   - tap
 TP  - trem. picking
 PM  - palm muting
\n/  - tremolo bar dip; n = amount to dip
 \n  - tremolo bar down
 n/  - tremolo bar up
/n\  - tremolo bar inverted dip
 =   - hold bend; also acts as connecting device for hammers/pulls
 <>  - volume swell (louder/softer)
 x   - on rhythm slash represents muted slash
 o   - on rhythm slash represents single note slash

Misc Legend
-----------
 |  - bar
||  - double bar
||o - repeat start
o|| - repeat end
*|  - double bar (ending)
 :  - bar (freetime)
 $  - Segno
 &  - Coda

Other versions of Tin Soldier

Tin soldierTabs

Almost there ...

Sign in to get your own page with links to favourite songs and more. You are just one click away...

Login with Facebook Login with Google