Log in

One click and you are in

Login with Facebook Login with Google

Why sign up and log in

Guitar Tabs Explorer
Small Faces bass tabs for Song of a baker

Bass tabs

Q=86

Intro
   W          H    S S S S S S E   W
G||-------------------|-------------------7---7--|-------------------|
D||-------------------|-----------5-7-------7----|-------------------|
A||-------------------|---------------3-5--------|--5----------------|
E||-------------------|--------------------------|-------------------|
 +E E Q  S S E +S E.   H    E Q  E   Q  Q  E Q  E
---------------------------|----------------------|-----------------------|
---------------------------|----------------------|-----------------------|
-(5)-------------3-(3)-3---|--5-------------------|-----------------------|
-------------3-5-----------|-----------3--3----3--|--5----5----3--3----5--|

                       Verse 1
 H    E Q.    H    E Q   E   H    H
---------------------|-----------------------||--------------------|
---------------------|-----------------------||-----------7--------|
--5------------------|--3-----------------3--||--5-----------------|
-----------5--5------|-----------3--3/-------||--------------------|


 H    Q.   E   H    E Q.    H    E Q  E
---------------------|---------------------|----------------------|
-----------5---------|---------------------|----------------------|
--3------------------|--5------------------|--3-------------------|
------------------5--|-----------5--5------|-----------3--3----5--|


 Q.   E Q.   S S  Q.   E Q.   E   H    E Q  E
------------------------|----------------------|----------------------|
------------7-----------|------------5---------|----------------------|
--5------5--------------|--3------3------------|--5-------------------|
-------------------5s-7-|-------------------5--|-----------5--5----5--|

            Refrain 1
 H    E E E E   Q  Q  Q  Q    E E Q  Q  S E.
-----------------------||----------------------|-------------------------|
-----------------------||----------------------|-------------------------|
--3--------------------||--5----5--------------|-----5-------------------|
-----------3--3--3--5--||------------5----5----|--3---------------5s-3---|

 Q  Q  E E E E   E E Q  H      Q  Q  E E Q
------------------------|----------------------|-----------------------|
------------------------|----------------------|-----------------------|
--5----5----------------|-----5----------------|--5----5---------------|
------------5--5--5--5--|--3-------------------|------------5--5--5----|


 Q  Q  E E E E   Q  Q  Q  Q    Q  Q  S S E E E
------------------------|----------------------|-------------------------|
------------------5-----|----------------------|-------------------5-----|
--3----3----------------|--5----5--------------|--3----3-----------------|
------------3--3-----5--|------------5----5----|------------3-3-3-----5--|

 Verse 2
  Q.   E Q.   S S  Q.   E Q.   E   Q  Q  E Q  E
||------------------------|----------------------|-----------------------|
||------------7-----------|------------5---------|-----------------------|
||--5------5--------------|--3------3------------|--5----5---------------|
||-------------------3s-7-|-------------------5--|------------5--5----5--|


 Q  Q  E Q  E   Q.   E Q.   S S  Q.   E Q.   E
-----------------------|------------------------|----------------------|
-----------------------|------------7-----------|------------5---------|
--3----3---------------|--5------5--------------|--3------3------------|
------------3--3----5--|-------------------5s-7-|-------------------5--|

                          Refrain 2
 Q  Q  E Q  E   Q  Q  S S E S S E   Q  Q  Q  Q
-----------------------|--------------------------||----------------------|
-----------------------|--------------------------||----------------------|
--5----5---------------|--3----3------------------||--5----5--------------|
------------5--5----5--|------------3-3-3--3-3-5--||------------5----5----|


 E E Q  Q  S E.   Q  Q  Q  Q    E E Q  H
-------------------------|----------------------|----------------------|
-------------------------|----------------------|----------------------|
-----5-------------------|--5----5--------------|-----5----------------|
--3---------------5s-3---|------------5----5----|--3-------------------|

 Guitar solo
  Q  Q  Q  Q    Q  Q  E E E E   Q  Q  E E Q
||----------------------|------------------------|-----------------------|
||----------------------|------------------------|-----------------------|
||--5----5--------------|--3----3----------------|--5----5---------------|
||------------5----5----|------------3--3--3--5--|------------5--5--5----|


 Q  Q  E E E E   E E E E E E E E   E E E E E E E E
------------------------|--------------------------|--------------------------|
---------------5--5-----|-----4--5--7-----------2--|-----5--3--2--------------|
--3----3----------------|--5--------------4--5-----|--3--------------2--3--4--|
------------3--------5--|--------------5-----------|--------------3-----------|


 Q  Q  E E Q    Q  Q  E E E E   E E E E E E E E
-----------------------|------------------------|--------------------------|
-----------------------|------------------5-----|-----4--5--7-----------2--|
--5----5---------------|--3----3----------------|--5--------------4--5-----|
------------5--5--5----|------------3--3-----5--|--------------5-----------|


 E E E E E E E E   Q  Q  Q  Q    Q  Q  E E E E
--------------------------|----------------------|------------------------|
-----5--3--2--------------|----------------------|------------------5-----|
--3--------------2--3--4--|--5----5--------------|--3----3----------------|
--------------3-----------|------------5----5----|------------3--3-----5--|

 Refrain 3
  Q  Q  Q  Q    E E Q  Q  S E.   Q  Q  Q  Q
||----------------------|-------------------------|----------------------|
||----------------------|-------------------------|----------------------|
||--5----5--------------|-----5-------------------|--5----5--------------|
||------------5----5----|--3---------------5s-3---|------------5----5----|


 E E Q  H      Q  Q  Q  Q    Q  Q  E E E E
----------------------|----------------------|------------------------|
----------------------|----------------------|------------------5-----|
-----5----------------|--5----5--------------|--3----3----------------|
--3-------------------|------------5----5----|------------3--3-----5--|

                         Outro
 Q  Q  E E Q    Q  Q  E E E E   W
-----------------------|------------------------||-------------------|
-----------------------|------------------------||-------------------|
--5----5---------------|--3----3----------------||-------------------|
------------5--5--5----|------------3--3--3--5--||-------------------|


 H    S S S S S S E   W         +Q  Q  S S E S S E
-------------------7---7--|-------------------|--------------------------|
-----------5-7-------7----|-------------------|--------------------------|
---------------3-5--------|--5----------------|-(5)------------3----3----|
--------------------------|-------------------|------------3-5----5---5--|


 Q  +E. S E Q.    +Q.  +S S S S S S S S E   Q  Q  E E Q
-----------------------|------------------------------|-----------------------|
-----------------------|------------------------------|-----------------------|
--5---(5)----5--5------|-(5)----(5)-3-----3-----3-----|--5----5---------------|
-----------5-----------|--------------3-5---3-5---5\--|------------3--3--3----|


 Q  Q  E E E E   Q  Q  E E Q    Q  Q  S S S S S S E
------------------------|-----------------------|----------------------------|
------------------------|-----------------------|----------------------------|
------------------------|--5----5---------------|----------------3-----3-----|
--5----5----3--3--3--5--|------------3--3--3----|--5----5----3-5---3-5---5\--|


 Q  Q  E E Q    Q  Q  S S S S +S S E   Q  Q  E E Q
-----------------------|-----------------------------|-----------------------*|
-----------------------|-----------------------------|-----------------------*|
--5----5---------------|----------------3-5-(5)-3-5--|--5----5---------------*|
------------3--3--3----|--5----5----3-5--------------|------------3--3--3----*|



Duration Legend
---------------
W - whole
H - half
Q - quarter
E - 8th
S - 16th
T - 32nd
X - 64th
. - note dotted
|-n-| - n-tuplets


Tablature Legend
----------------
S - shift slide
s - legato slide
/ - slide into from below or out of upwards

Almost there ...

Sign in to get your own page with links to favourite songs and more. You are just one click away...

Login with Facebook Login with Google