Guitar Tabs Explorer
Small Faces guitar tabs for Sha la la la lee

Sha La La La Lee tab


Be the first to rate

Sha La La La Lee tab by Small Faces

Guitar tabs with lyrics

Print
SHA LA LA LA LEE

As recorded by Small Faces
(From the 1966 Album SMALL FACES)

Words and Music by Kenny Lynch & Mort Shumann

Transcribed by Slowhand


Gtr I (E chord diagramEE A chord diagramAA D chord diagramDD G chord diagramGG B chord diagramBB E chord diagramEE) - 'Steve Marriott - Electric Guitar'


 Intro
  Q=135
  E chord diagramEE             Dsus2 chord diagramDsus2Dsus2/E chord diagramEE          E chord diagramEE                Dsus2 chord diagramDsus2Dsus2/E chord diagramEE
 4/4
  Gtr I (Clean El. Gtr.)
  H chord diagramHH..       E chord diagramEE   H chord diagramHH    +E  E chord diagramEE E chord diagramEE E chord diagramEE   H chord diagramHH    +E  E chord diagramEE E chord diagramEE E chord diagramEE   H chord diagramHH    +E  E chord diagramEE E chord diagramEE E chord diagramEE
|-------------|----------------|----------------|-----------------||
|-9-----------|----------------|-9----(9)---9---|-----------------||
|-9-----------|-7----(7)---7---|-9----(9)---9---|-7----(7)---7----||
|-9---------9-|-7----(7)-9-7-9-|-9----(9)-9-9-9-|-7----(7)-9-7-9--||
|-7---------7-|-7----(7)-7-7-7-|-7----(7)-7-7-7-|-7----(7)-7-7-7--||
|-0---------0-|-0----(0)-0-0-0-|-0----(0)-0-0-0-|-0----(0)-0-0-0--||


 1st Verse
  E chord diagramEE             B chord diagramBB    E chord diagramEE      A chord diagramAA              E chord diagramEE      B chord diagramBB
  H chord diagramHH..       E chord diagramEE   H chord diagramHH    H chord diagramHH      Q  Q  E chord diagramEE Q  E chord diagramEE   Q  E chord diagramEE E chord diagramEE E chord diagramEE. S E chord diagramEE E chord diagramEE
|-------------|-----------|--------------|------------------|
|-9-----------|------9----|--------------|----9-------------|
|-9-----------|-8----9----|--------------|----9---8--8-8-8--|
|-9---------9-|-9----9----|----7----7--7-|----9---9--9-9-9--|
|-7---------7-|-9----7----|----7----7--7-|----7---9--9-9-9--|
|-0---------0-|-7---------|-5-----5------|-0------7--7-7-7--|


  E chord diagramEE               B chord diagramBB      E chord diagramEE        A chord diagramAA      B chord diagramBB        E chord diagramEE      A chord diagramAA
  Q  Q  E chord diagramEE E chord diagramEE E chord diagramEE E chord diagramEE   Q  E chord diagramEE E chord diagramEE Q  E chord diagramEE E chord diagramEE   Q  E chord diagramEE E chord diagramEE Q  E chord diagramEE E chord diagramEE   Q  E chord diagramEE E chord diagramEE E chord diagramEE E chord diagramEE E chord diagramEE E chord diagramEE
|---------------|---------------|---------------|-----------------|
|----9------9---|----9------9---|---------------|----9-9----------|
|----9------9---|----9-8----9---|----7-6----9-8-|----9-9-----7-6--|
|----9------9---|----9-9----9---|----7-7----9-9-|----9-9-----7-7--|
|-7--7--7-7-7-7-|------9-7--7-7-|----7-7----9-9-|-7--7-7-----7-7--|
|---------------|-7----7--------|-5------7------|--------5-5------|


                                 2nd - 4th Verses
        B chord diagramBB         E chord diagramEE     A chord diagramAA  B chord diagramBB      E chord diagramEE               B chord diagramBB      E chord diagramEE
  Q  Q  E chord diagramEE E chord diagramEE E chord diagramEE E chord diagramEE   Q  Q  Q  Q      Q  E chord diagramEE E chord diagramEE Q  E chord diagramEE E chord diagramEE   Q  E chord diagramEE E chord diagramEE Q  E chord diagramEE E chord diagramEE
|---------------|-------------||----------------|----------------|
|---------------|----9--------||o----9-9----9-9-|--------9--9-9--|
|----6------8-8-|----9--6--8--||-----9-9----9-9-|-8--8-8-9--9-9--|
|----7------9-9-|----9--7--9--||-----9-9----9-9-|-9--9-9-9--9-9--|
|----7------9-9-|-7--7--7--9--||o-7--7-7-7--7-7-|-9--9-9-7--7-7--|
|-5-----7-7-----|-------5--7--||----------------|-7--7-7---------|


  A chord diagramAA               E chord diagramEE      B chord diagramBB           E chord diagramEE               B chord diagramBB      E chord diagramEE
  Q  E chord diagramEE E chord diagramEE Q  E chord diagramEE E chord diagramEE   Q  E chord diagramEE E chord diagramEE S E chord diagramEE S E chord diagramEE E chord diagramEE   Q  E chord diagramEE E chord diagramEE Q  E chord diagramEE E chord diagramEE   Q  E chord diagramEE E chord diagramEE Q  E chord diagramEE E chord diagramEE
|---------------|--------7-7-7-7-7-|---------------|---------------|
|---------------|----9-9-7-7-7-7-7-|----9-9----9-9-|--------9--9-9-|
|----7-6----7-6-|----9-9-8-8-8-8-8-|----9-9----9-9-|-8--8-8-9--9-9-|
|----7-7----7-7-|----9-9-9-9-9-9-9-|----9-9----9-9-|-9--9-9-9--9-9-|
|----7-7----7-7-|-7--7-7-9-9-9-9-9-|-7--7-7-7--7-7-|-9--9-9-7--7-7-|
|-5------5------|--------7-7-7-7-7-|---------------|-7--7-7--------|


                                                  1.,2.
  A chord diagramAA      B chord diagramBB               A chord diagramAA               B chord diagramBB         E chord diagramEE
  Q  E chord diagramEE E chord diagramEE Q  E chord diagramEE E chord diagramEE   Q  E chord diagramEE E chord diagramEE E chord diagramEE E chord diagramEE E chord diagramEE E chord diagramEE   Q  Q  E chord diagramEE E chord diagramEE E chord diagramEE E chord diagramEE    Q   Q   S  E chord diagramEE  S  E chord diagramEE  E chord diagramEE
|---------------|----------------|---------------|-----12--12-12-12-12-12-||
|---------------|----9-9---------|---------------|-----12--12-12-12-12-12-||
|----7-6----9-8-|----9-9-----7-6-|----6------8-8-|-----13--13-13-13-13-13-||
|----7-7----9-9-|----9-9-----7-7-|----7------9-9-|-----14--14-14-14-14-14-||
|----7-7----9-9-|-7--7-7-----7-7-|----7------9-9-|-----14--14-14-14-14-14-||
|-5------7------|--------5-5-----|-5-----7-7-----|-12--12--12-12-12-12-12-||


 Bridge
  F# chord diagramF#F#                          B7 chord diagramB7B7
  Q  Q  Q  Q    Q  Q  Q  Q    Q  Q  Q  Q    Q  Q  Q  Q
|-2--2--2--2--|-2--2--2--2--|-7--7--7--7--|-7--7--7--7---|
|-2--2--2--2--|-2--2--2--2--|-7--7--7--7--|-7--7--7--7---|
|-3--3--3--3--|-3--3--3--3--|-8--8--8--8--|-8--8--8--8---|
|-4--4--4--4--|-4--4--4--4--|-7--7--7--7--|-7--7--7--7---|
|-4--4--4--4--|-4--4--4--4--|-9--9--9--9--|-9--9--9--9---|
|-2--2--2--2--|-2--2--2--2--|-7--7--7--7--|-7--7--7--7---|


  F# chord diagramF#F#                             B chord diagramBB
  Q  Q  Q  Q    Q  Q  Q  Q    Q  q  H chord diagramHH      Q  q  H chord diagramHH
|-2--2--2--2--|-2--2--2--2--|----7--7----|----7--7----|
|-2--2--2--2--|-2--2--2--2--|----7--7----|----7--7----|
|-3--3--3--3--|-3--3--3--3--|----8--8----|----8--8----|
|-4--4--4--4--|-4--4--4--4--|----9--9----|----9--9----|
|-4--4--4--4--|-4--4--4--4--|----9--9----|----9--9----|
|-2--2--2--2--|-2--2--2--2--|----7--7----|----7--7----|


                                                           Outro
                                           3.
                                            E chord diagramEE               E chord diagramEE
  E chord diagramEE E chord diagramEE E chord diagramEE E chord diagramEE E chord diagramEE E chord diagramEE E chord diagramEE E chord diagramEE   E chord diagramEE E chord diagramEE E chord diagramEE E chord diagramEE E chord diagramEE E chord diagramEE S S S S  3x Q  Q  Q  E chord diagramEE E chord diagramEE    Q  Q  Q  Q
|-----------------|----------------------||--------------||--------------|
|-----------------|---------------------o||-9--9--9------||-9--9--9--9---|
|-----------------|----------------------||-9--9--9--7-8-||-9--9--9--9---|
|-8s9-9-9-8s9-9-9-|-8s9-9-9-9-9-9-9-9-9--||-9--9--9--7-8-||-9--9--9--9---|
|-8s9-9-9-8s9-9-9-|-8s9-9-9-9-9-9-9-9-9-o||-7--7--7------||-7--7--7--7---|
|-6s7-7-7-6s7-7-7-|-6s7-7-7-7-7-7-7-7-7--||--------------||--------------|


  A chord diagramAA     B chord diagramBB         E chord diagramEE             A chord diagramAA     B chord diagramBB
  Q  Q  E chord diagramEE E chord diagramEE E chord diagramEE E chord diagramEE   Q  Q  Q  Q    Q  Q  E chord diagramEE E chord diagramEE E chord diagramEE E chord diagramEE   Q  Q  H chord diagramHH
|---------------|-------------|---------------|------------|
|---------------|-9--9--9--9--|---------------|------------|
|-6--6--8-8-9-8-|-9--9--9--9--|-6--6--8-8-9-8-|-8----------|
|-7--7--9-9-9-9-|-9--9--9--9--|-7--7--9-9-9-9-|-9----------|
|-7--7--9-9-9-9-|-7--7--7--7--|-7--7--9-9-9-9-|-9----------|
|-5--5--7-7---7-|-------------|-5--5--7-7---7-|-7----------|


  N.C.                                                            E chord diagramEE
  H chord diagramHH    Q  E chord diagramEE     +E    H chord diagramHH.      Q    a  E chord diagramEE  Q.   S     +S  E chord diagramEE E chord diagramEE E chord diagramEE     Q  Q  Q  Q
|-------------------|------------|----------------------------||---------------|
|-------------------|------------|------10--------------------||o-9--9--9--9---|
|---------9pb11r(9)-|-7----------|-9s11-------9pb11r(9)-7-9-7-||--9--9--9--9---|
|-------------------|------------|----------------------------||--9--9--9--9---|
|-------------------|------------|----------------------------||o-7--7--7--7---|
|-------------------|------------|----------------------------||---------------|


  A chord diagramAA     B chord diagramBB
  Q  Q  E chord diagramEE E chord diagramEE E chord diagramEE E chord diagramEE  3x W          +W           Q  Q  Q  Q
|----------------||----------|------------|--------------|
|---------------o||----------|------------|--------------|
|-6--6--8-8-9-8--||-8--------|-(8)--------|-8--8--8--8---|
|-7--7--9-9-9-9--||-9--------|-(9)--------|-9--9--9--9---|
|-7--7--9-9-9-9-o||-9--------|-(9)--------|-9--9--9--9---|
|-5--5--7-7---7--||-7--------|-(7)--------|-7--7--7--7---|


                  E chord diagramEE             A chord diagramAA     B chord diagramBB
  Q  Q  Q  Q      Q  Q  Q  Q    Q  Q  E chord diagramEE E chord diagramEE E chord diagramEE E chord diagramEE  3x
|-------------||--------------|----------------||
|-------------||o-9--9--9--9--|---------------o||
|-8--8--8--8--||--9--9--9--9--|-6--6--8-8-9-8--||
|-9--9--9--9--||--9--9--9--9--|-7--7--9-9-9-9--||
|-9--9--9--9--||o-7--7--7--7--|-7--7--9-9-9-9-o||
|-7--7--7--7--||--------------|-5--5--7-7---7--||


Duration Legend
---------------
W - whole; H chord diagramHH - half; Q - quarter; E chord diagramEE - 8th; S - 16th; T - 32nd; X - 64th; a - acciaccatura
+ - note tied to previous; . - note dotted; .. - note double dotted
Uncapitalized letters represent notes that are staccato (1/2 duration)
Irregular groupings are notated above the duration line
Duration letters will always appear directly above the note/fret number it represents the
duration for.  Duration letters with no fret number below them represent rests.  Multi-
bar rests are notated in the form Wxn, where n is the number of bars to rest for.  Low
melody durations appear below the staff

Tablature Legend
----------------
 h   - hammer-on
 p   - pull-off
 b   - bend
 pb  - pre-bend
 r   - bend release (if no number after the r, then release immediately)
 /\  - slide into or out of (from/to "nowhere")
 s   - legato slide
 S   - shift slide
  - natural harmonic
[n]  - artificial harmonic
n(n) - tapped harmonic
 ~   - vibrato
 tr  - trill
 T   - tap
 TP  - trem. picking
 PM  - palm muting
\n/  - tremolo bar dip; n = amount to dip
 \n  - tremolo bar down
 n/  - tremolo bar up
/n\  - tremolo bar inverted dip
 =   - hold bend; also acts as connecting device for hammers/pulls
 <>  - volume swell (louder/softer)
 x   - on rhythm slash represents muted slash
 o   - on rhythm slash represents single note slash

Misc Legend
-----------
 |  - bar
||  - double bar
||o - repeat start
o|| - repeat end
*|  - double bar (ending)
 :  - bar (freetime)
 $  - Segno
 &  - Coda
Tempo markers -  = BPM(8/16=s8/s16), where s8 = swing 8ths, s16 = swing 16ths

Other versions of Sha La La La Lee

- Sha la la la leeChords

Comment this song and these guitar tabs

Do you have corrections, comments on the guitar tabs, thoughts about the song or a message to the author? Write them below.