Guitar Tabs Explorer
Small Faces bass tabs for Sha la la la lee

Sha La La La Lee bass tab


Be the first to rate

Sha La La La Lee bass tab by Small Faces

Bass tabs with lyrics

Print

Sha La La La Lee
Second single released by The Small Faces in 1966, peaked at number 3 UK


Symbol ‘.’ Are pause dots

Intro:
  ‘.’    ‘.’   ‘.’    ‘.’
G|-----------------------
D|-----------------------
A|-7----5-7-----7----5-7-
E|-----------------------

Verse 1:
  Picked her up on a Friday Night...Sha La La La Lee...Yeh
G|----------------------------------------------------------
D|----------------------------------7---7--7--7-------------
A|-7------------------------7--------------------7--7-------
E|-------------------7---------------------------------7--7-

G|------------------------------------------------------------------
D|-----------------------7--7-----------7--7---7—-7-----------------
A|-7--7--7--7------7--7------------7--7------------------7--7-------
E|------------7--7------------7--7------------------7--7-------5--7-

Verse 2:
G|------------------------------------------------------------------
D|-----------------------7--7--7--7---------------------------------
A|-7--7--7--7------7--7-------------7--7-------7--7--7--7------7--7-
E|------------7--7-----------------------7--7-------------7--7------

G|--------------------------------------------
D|-7--7-----------7--7---7--7-----------------
A|-----------7--7------------------7--7--7--8-
E|------7--7------------------7--7------------

Bridge:
G|----------------------------------------------------------------
D|----------------------9--9------9--9----------------------------
A|-9--9------9--9------------9--9------9--9---9--9------9--9------
E|------9--9------9--9-----------------------------9--9------9--9-

G|-----------------------------------------------------
D|-9--9------9--9--------------------------------------
A|------------------2-2-2-2-2-2-2-2---2-2-2-2-2-2-2-2/-
E|-----------------------------------------------------

Verse 3:
G|------------------------------------------------------------------
D|-----------------------7--7--7--7---------------------------------
A|-7--7--7--7------7--7-------------7--7-------7--7--7--7------7--7-
E|------------7--7-----------------------7--7-------------7--7------

G|--------------------------------------------
D|-7--7-----------7--7---7--7-----------------
A|-----------7--7------------------7--7--7--8-
E|------7--7------------------7--7------------

Bridge:
G|----------------------------------------------------------------
D|----------------------9--9------9--9----------------------------
A|-9--9------9--9------------9--9------9--9---9--9------9--9------
E|------9--9------9--9-----------------------------9--9------9--9-

G|-----------------------------------------------------
D|-9--9------9--9--------------------------------------
A|------------------2-2-2-2-2-2-2-2---2-2-2-2-2-2-2-2/-
E|-----------------------------------------------------

Verse 4:
G|------------------------------------------------------------------
D|-----------------------7--7--7--7---------------------------------
A|-7--7--7--7------7--7-------------7--7-------7--7--7--7------7--7-
E|------------7--7-----------------------7--7-------------7--7------

G|--------------------------------------------
D|-7--7-----------7--7---7--7-----------------
A|-----------7--7------------------7--7--7--7-
E|------7--7------------------7--7------------

Chorus 1:                                                ‘.’        ‘.’
G|---------------------------------------------------------------------
D|---------------------------------------------------------------------
A|-7----7---------------------7----7-----------------------------------
E|--9-7--9-7-9---5--5---7--7---9-7--9-7-9---5--5---7--7---7--------2\7-

Chorus 2:
G|------------------------------------------------------
D|------------------------------------------------------
A|-7----7---------------------7----7--------------------
E|--9-7--9-7-9---5--5---7--7---9-7--9-7-9---5--5---7--7-

                              ‘.’        ‘.’
G|------------------------------------------
D|------------------------------------------
A|-7----7-----------------------------------
E|--9-7--9-7-9---5--5---7--7---7--------2\7-

Chorus 3:
G|------------------------------------------------------
D|------------------------------------------------------
A|-7----7---------------------7----7--------------------
E|--9-7--9-7-9---5--5---7--7---9-7--9-7-9---5--5---7--7-

                              ‘.’
G|---------------------------------------------------------------
D|---------------------------------------------------------------
A|-7----7--------------------------------------------------------
E|--9-7--9-7-9---5--5---7--7---7--------2\7--7--7--7--7--7--7--7-

Outro:                                   (Repeat To Fade /End)
G|------------------------------------------------------
D|------------------------------------------------------
A|-7----7---------------------7----7--------------------
E|--9-7--9-7-9---5--5---7--7---9-7--9-7-9---5--5---7--7-

Symbol ‘.’ Are Pause Dots


Picked her up on a Friday night
Sha la la la lee, yeah
I knew everything gonna be alright
Sha la la la lee, yeh
Sha la la la lee
I asked her 'where do you wanna go? '
Sha la la la lee, yeh
Well we went someplace, I don't know
Sha la la la lee, yeh
Sha la la la lee
I held her close and I asked her if she was gonna be my baby
It felt so good when she answered me
Oh yeh, oh yeh
Oh yeh, oh yeh, oh yeh
She looked good and she moved so fine
Sha la la la lee, yeh
And all the guys knew she was mine
Sha la la la lee, yeh
Sha la la la lee
I held her close and I asked her again if she was gonna be my baby
It felt so good when she answered me
Oh yeh, oh yeh
Oh yeh, oh yeh, oh yeh
Wanna know how my story ends?
Sha la la la lee, yeh
Well we invited just a few close friends
Sha la la la lee, yeh
Sha la la la lee
Sha la la la la la lee
Sha la la la la la lee
Sha la la la la la lee
Sha la la la la la lee
Sha la la la la la lee
Sha la la la la la la la la la lee
Sha la la la la la la la la la lee
Sha la la la la la la la la la lee
Sha la la la la la lee
Sha la la la la la lee

Comment this song and these bass tabs

Do you have corrections, comments on the bass tabs, thoughts about the song or a message to the author? Write them below.