Guitar Tabs Explorer
Small Faces bass tabs for Lazy sunday

Lazy Sunday bass tab


4 / 5 [3 votes]


Ayreon77Author: Ayreon77

Lazy Sunday bass tab by Small Faces

"Lazy Sunday" is a single released by English rock band Small Faces in 1968. It was also included on their concept album "Ogdens´ Nut Gone Flake". "Lazy Sunday" is written by Steve Marriott and Ronnie Lane.

Bass tabs

Print
  • Tuning: Standard tuning
  • Difficulty: Novice
-------------------------------------------------------------------
                     Artist - Small Faces
                    **********************
                      Song - Lazy Sunday
                     ********************
            Album - Ogdens` Nut Gone Flake (1969)
           ***************************************
                    Tabbed By - Ayreon77
                   **********************
-------------------------------------------------------------------
Tuning = Standard


INTRO
******
G|-----------|-----------|---------|-----------------|
D|-------5~~-|-------7~~-|-------5-|-----------------|
A|-5~~-5-----|-7~~-7-----|-5~~-5---|-5-7-7-7-7-7-7-7-|
E|-----------|-----------|---------|-----------------|


--------------------------
00:12
VERSE 1
********
G|------------------|---------------|------------------|---------------|
D|------------------|---------------|------------------|---------------|
A|--s-------------7-|---------------|--s-------------7-|---------------|
E|-3\5--5-5--5-5----|-5-5--5-5--5-5-|-3\5--5-5--5-5----|-5-5--5-5--5-5-|


G|------------------|---------------------------|----------------|
D|------------------|---------------------------|----------------|
A|-----4-5--5--5--5-|-5--5--5---5----7--7--7--7-|-7--7--7----7---|
E|-5-7--------------|---------7---7-------------|----------7---7-|


--------------------------
00:31
CHORUS
*******
G|------------------------|-------------------|---------------------|-----|
D|------------------------|-------------------|---------------------|-----|
A|-----7----s-------------|--------s--------s-|-8-8-8-8-10-10-10-10-|-----|
E|-5-5---5-5\-10-10-10-10-|-5-5-5-5\-8-8-8-8\-|---------------------|-5~~-|


--------------------------
00:45
BREAK
******
G|------------------|---------------|
D|------------------|---------------|
A|--s-------------7-|---------------|
E|-3\5--5-5--5-5----|-5-5--5-5--5-5-|


--------------------------
00:52
VERSE 2
********
G|------------------|---------------|------------------|---------------|
D|------------------|---------------|------------------|---------------|
A|--s-------------7-|---------------|--s-------------7-|---------------|
E|-3\5--5-5--5-5----|-5-5--5-5--5-5-|-3\5--5-5--5-5----|-5-5--5-5--5-5-|


G|------------------|---------------------------|----------------|
D|------------------|---------------------------|----------------|
A|-----4-5--5--5--5-|-5--5--5---5----7--7--7--7-|-7--7--7----7---|
E|-5-7--------------|---------7---7-------------|----------7---7-|


--------------------------
01:11
CHORUS
*******
G|------------------------|-------------------|---------------------|-----|
D|------------------------|-------------------|---------------------|-----|
A|-----7----s-------------|--------s--------s-|-8-8-8-8-10-10-10-10-|-----|
E|-5-5---5-5\-10-10-10-10-|-5-5-5-5\-8-8-8-8\-|---------------------|-9~~-|


--------------------------
01:24
BELLS
******
G|---------|---------|---------|--------------|
D|---------|---------|--s------|--------------|
A|--s------|--s-5~~~-|-5\-8~~~-|-8-8-8--7-7-7-|
E|-9\-3~~~-|-3\------|---------|--------------|


--------------------------
01:36
Root de doot de day
********************
G|--------------------|-----------------------|
D|--------------------|-----------------------|
A|------7~~~------5-5-|-------7---------------|
E|-5~~--------3-3-----|-5-5-5---5-5--5-5--5-5-|


G|--------------------|-----------------------|
D|--------------------|-----------------------|
A|------7~~~------5-5-|-------7---------------|
E|-5~~--------3-3-----|-5-5-5---5-5--5-5--5-5-|


--------------------------
01:51
VERSE 3
********
G|------------------|---------------------------|----------------|
D|------------------|---------------------------|----------------|
A|-----4-5--5--5--5-|-5--5--5---5----7--7--7--7-|-7--7--7----7---|
E|-5-7--------------|---------7---7-------------|----------7---7-|


--------------------------
01:58
CHORUS
*******
G|------------------------|-------------------|---------------------|-----|
D|------------------------|-------------------|---------------------|-----|
A|-----7----s-------------|--------s--------s-|-8-8-8-8-10-10-10-10-|-----|
E|-5-5---5-5\-10-10-10-10-|-5-5-5-5\-8-8-8-8\-|---------------------|-9~~-|


--------------------------
02:12
BELLS
******
G|---------|---------|---------|--------------|
D|---------|---------|--s------|--------------|
A|--s------|--s-5~~~-|-5\-8~~~-|-8-8-8--7-7-7-|
E|-9\-3~~~-|-3\------|---------|--------------|


--------------------------
02:24
CHORUS
*******
G|------------------------|-------------------|---------------------|
D|------------------------|-------------------|---------------------|
A|-----7----s-------------|--------s--------s-|-8-8-8-8-10-10-10-10-|
E|-5-5---5-5\-10-10-10-10-|-5-5-5-5\-8-8-8-8\-|---------------------|


G|------------------|------------------------|
D|------------------|-----------------7~~~~~-|
A|----------9-9-9-9-|-5-5-5-5-7-7-7-7--------|
E|-9-9-9-9----------|------------------------|


--------------------------
02:42
FUNKY OUTRO
************
G|---------|----------------|----------------|----------------|----------------|
D|---------|---7~~----------|---7~~----------|---7~~----------|---7~~----------|
A|-7-------|-7------7-------|-7------7-------|-7------7-------|-7------7-------|
E|---5-5~~-|----------5-5~~-|----------5-5~~-|----------5-5~~-|----------5-5~~-|


ENJOY.............

Comment this song and these bass tabs

Do you have corrections, comments on the bass tabs, thoughts about the song or a message to the author? Write them below.