Guitar Tabs Explorer
Small Faces guitar tabs for Just passing

Just Passing tab


Be the first to rate

Just Passing tab by Small Faces

Guitar tabs with lyrics

Print

12th December 2000, 4.11pm
Shaun Hand, Birmingham

JUST PASSING
(Marriott, Laine)

B chord diagramBB-side to 'I Can't Make It' (Immediate, 1966)

Transcribed for
Guitar 2 (Right speaker) Clean w/tremolo effect.

Intro:

--------------------------|
--------------------------|
--6--4--6-----6--4--------|
-----------6--------7--6--|
--------------------------|
--------------------------|

Rest of the song:

-----------------------0h2p0-----------0h2p0-----------------------0h2p0--|
--------------------2---------------2---------------------------2---------|
--6--4-----------3---------------3------------6--4-----------3------------|
--------7--6--0---------------0---------------------7--6--0---------------|
--------------------------------------------------------------------------|
--------------------------------------------------------------------------|

------------------------------------------|
------------------------------------------|
------------------6--4--------6-----------| (x2)
------------7-----------7--6-----5--7--6--|
-------7-------8--------------------------|
--0---------------------------------------|

Note: open low E chord diagramEE string is played by the bass - not the guitar.

And that's the song - to understand this you'll have to listen to the right speaker on
the stereo version of this song and you'll understand.
The acoustic guitar in the left speaker just plays the chords and is easy enought to figure out.

The main riff to the song is played on the piano but is played on the high E chord diagramEE string of the guitar like this:

Comment this song and these guitar tabs

Do you have corrections, comments on the guitar tabs, thoughts about the song or a message to the author? Write them below.