Guitar Tabs Explorer
Small Faces bass tabs for Itchygoo park

Itchygoo Park bass tab


Be the first to rate

Itchygoo Park bass tab by Small Faces

Bass tabs

Print

Itchygoo park by Small faces

Intro; 2 bars rest followed by
G|----------------|----------------|----------------|
D|----------------|----------------|----------------|
A|------9---9-7-9-|-0-0-9------9-7-|9-----7-9-7-9-7-|
E|----------------|----------------|----------------|

Verse1:
G|----------------|6---6---6---6-6-|------7---------|-------7h9-7h9--|
D|7---7-----------|------6---------|5---5---5---5-5-|----------------|
A|------7-7---7-7-|----------------|----------------|5---5-----------|
E|----------------|----------------|----------------|----------------|

G|----------------|6---6---6---6-6-|------7---------|----------------|
D|7---7-----------|------6---------|5---5---5---5-5-|----------------|
A|------7-7---7-7-|----------------|----------------|5---5---9-7-9-7-|
E|----------------|----------------|----------------|----------------|

Pre-Chorus1:
G|----------------|----------------|
D|----------7-----|----------------|
A|-0--0--0------0-|0----9----7-9-7-|
E|----------------|----------------| 3x

Chorus1:
G|----------------|----------------|
D|----------------|----------------|
A|-0--0--9----9-7-|9-----7-9-7-9-7-|
E|----------------|----------------| 3x

G|----------------|----------------|
D|----------------|----------------|
A|9-----7-9-7-9-7-|-0--0--9----9-7-|
E|----------------|----------------|

Bridge1:
G|----------------|----------------|----------------|----------------|
D|-7--------------|-5--------------|--5-7-5---------|----------------|
A|----------------|----------------|--------9-7-5---|----------------|
E|----------------|----------------|----------------|-5--------------|

G|----------------|----------------|----------------|----------------|
D|-7--------------|-5--------------|--5-7-5---------|----------------|
A|----------------|----------------|--------9-7-5---|-7--------------|
E|----------------|----------------|----------------|----------------|

2 bars rest (drums)
Verse2 = Verse1
Pre-Chorus2 = Pre-Chorus1
Chorus2 = Chorus1
Bridge2 = Bridge1

2 bars rest (drums)
Chorus3 = Chorus1

2 bars rest (drums)
Chorus4 = Chorus1 (fade out)

Comment this song and these bass tabs

Do you have corrections, comments on the bass tabs, thoughts about the song or a message to the author? Write them below.