Guitar Tabs Explorer
Small Faces bass tabs for Itchycoo park

Itchycoo Park bass tab


Be the first to rate

Itchycoo Park bass tab by Small Faces

Bass tabs with lyrics

Print

Itchycoo Park
Single by The Small Faces in 1967, reached number 3 in UK
Bass performance Ronnie Lane. Tab by bass50611. Welcome to
My Tab of this outstanding single from the flower power year
Symbol ‘.’ Denotes pause.

Intro:
G|--------|-----------------------------------|
D|-GUITAR-|-4--2----------------4---4--2------|
A|-START--|------4--2--------------------4--2-|
E|--------|-----------5-5-0-5-5---------------|

Verse 1:
G|---------------------------------7/9-9--------------------|
D|---------------------5-5-5-5------------------------------|
A|-----------4-4-4-4------5----5-5------------------4-4-4-4-|
E|-5-5-0-5-5----4-------------------------5-5-0-5-5----4----|

G|-----------------------|
D|-5-5-5-5---------------|
A|----5-----5-5--0-2-0-2-|
E|-----------------------|

Pre-Chorus:
G|--------------------------------------------------------|
D|-7--7---5-------4---7--7---5-------4---7--7---5-------4-|
A|----------5---7--------------5---7--------------5---7---|
E|--------------------------------------------------------|

Chorus:
     ‘.’                       ‘.’            (Play This x2)
G|---------------------------------------------------|
D|-7--7---6-5-4---2-4--2-4---7--7---6-5-4---2-4--2-4-|
A|---------------------------------------------------|
E|---------------------------------------------------|

Bridge:
   ‘.’ ‘.’                      ‘.’  ‘.’ ‘.’                     ‘.’
G|------------------------------------------------------------------|
D|-7----5---5-5-5--7--5--4----------------5---5-5-5--7--5--4--------|
A|-------------------------7--5------------------------------7--5---|
E|-------------------------------5----5---------------------------0-|

Verse 2:
G|---------------------------------7/9-9--------------------|
D|---------------------5-5-5-5------------------------------|
A|-----------4-4-4-4------5----5-5------------------4-4-4-4-|
E|-5-5-0-5-5----4-------------------------5-5-0-5-5----4----|

G|-----------------------|
D|-5-5-5-5---------------|
A|----5-----5-5--0-2-0-2-|
E|-----------------------|

Pre-Chorus:
G|--------------------------------------------------------|
D|-7--7---5-------4---7--7---5-------4---7--7---5-------4-|
A|----------5---7--------------5---7--------------5---7---|
E|--------------------------------------------------------|

Chorus:
     ‘.’                       ‘.’            (Play This x2)
G|---------------------------------------------------|
D|-7--7---6-5-4---2-4--2-4---7--7---6-5-4---2-4--2-4-|
A|---------------------------------------------------|
E|---------------------------------------------------|

Bridge:
   ‘.’ ‘.’                      ‘.’  ‘.’ ‘.’                    ‘.’
G|-----------------------------------------------------------------|
D|-7----5---5-5-5--7--5--4----------------5---5-5-5--7--5--4-------|
A|-------------------------7--5------------------------------7-5---|
E|-------------------------------5----5--------------------------0-|

Chorus 2:
     ‘.’                       ‘.’
G|---------------------------------------------------|
D|-7--7---6-5-4---2-4--2-4---7--7---6-5-4---2-4--2-4-|
A|---------------------------------------------------|
E|---------------------------------------------------|

     ‘.’                       ‘.’      (Break)
G|----------------------------------------|
D|-7--7---6-5-4---2-4--2-4---7--7---6-5-4-|
A|----------------------------------------|
E|----------------------------------------|

Outro:                                      (Repeat To Fade/End)
     ‘.’                       ‘.’
G|---------------------------------------------------|
D|-7--7---6-5-4---2-4--2-4---7--7---6-5-4---2-4--2-4-|
A|---------------------------------------------------|
E|---------------------------------------------------|

Symbol ‘.’ Denotes Pause


Over Bridges of Sighs
To rest my eyes in shades of green
Under Dreaming Spires
To Itchycoo Park, that's where I've been
(Chorus 1)
What did you do there? - I got high
What did you feel there? - Well I cried
But why the tears there? - I'll tell you why - yyyyy
It's all too beautiful, It's all too beautiful
It's all too beautiful, It's all too beautiful
It's all too beautiful
[Bridge:]
I feel inclined to blow my mind
Get hung up, feed the ducks with a bun
They all come out to groove about
Be nice and have fun in the sun
I'll tell you what I'll do - What will you do?
I'd like to go there now with you
You can miss out school - Would that be cool?
Why go to learn the words of fools?
(Chorus 2)
What will we do there? - We'll get high
What will we touch there? - We'll touch the sky
But why the tears there? I'll tell you why
It's all too beautiful, It's all too beautiful
It's all too beautiful, It's all too beautiful
It's all too beautiful
I feel inclined to blow my mind
Get hung up, feed the ducks with a bun
They all come out to groove about
Be nice and have fun in the sun
It's all to beautiful, It's all to beautiful

Comment this song and these bass tabs

Do you have corrections, comments on the bass tabs, thoughts about the song or a message to the author? Write them below.