Guitar Tabs Explorer
Small Faces guitar tabs for Itchycoo park (Ver. 2)

Itchycoo Park tab


Be the first to rate

Itchycoo Park tab by Small Faces (Ver. 2)

Guitar tabs with lyrics

Print
ITCHYCOO PARK

As recorded by Small Faces
(From the 1967 Album THE AUTUMN STONE)

Words and Music by Steve Mariott & Ronnie Lane

Transcribed by Slowhand


Gtr I (E chord diagramEE A chord diagramAA D chord diagramDD G chord diagramGG B chord diagramBB E chord diagramEE) - 'Steve Marriott - Acoustic Guitar'


 Intro
  Q=128(8=s8)
  N.C.          A chord diagramAA
 4/4
  Gtr I (Ac. Gtr.)
  H chord diagramHH    Q  E chord diagramEE E chord diagramEE   E chord diagramEE E chord diagramEE E chord diagramEE E chord diagramEE E chord diagramEE E chord diagramEE E chord diagramEE E chord diagramEE
|-------------|-----------------|
|-------------|---2-2-----2-2---|
|-------------|---2-2-----2-2---|
|-------------|---2-2-----2-2---|
|-------------|-0-------0-------|
|-----------0-|-------0-------0-|


  F#m chord diagramF#mF#m               A chord diagramAA                 F#m chord diagramF#mF#m
  E chord diagramEE E chord diagramEE E chord diagramEE E chord diagramEE E chord diagramEE E chord diagramEE E chord diagramEE E chord diagramEE   E chord diagramEE E chord diagramEE E chord diagramEE E chord diagramEE E chord diagramEE E chord diagramEE E chord diagramEE E chord diagramEE   E chord diagramEE E chord diagramEE E chord diagramEE E chord diagramEE E chord diagramEE E chord diagramEE E chord diagramEE E chord diagramEE
|-----------------|-0-0-0-0-0-0-0-0-|-2-2-2-2-2-2-2-2-||
|---2-2-----2-2---|-2-2-2-2-2-2-2-2-|-2-2-2-2-2-2-2-2-||
|---2-2-----2-2---|-2-2-2-2-2-2-2-2-|-2-2-2-2-2-2-2-2-||
|---4-4-----4-4---|-2-2-2-2-2-2-2-2-|-4-4-4-4-4-4-4-4-||
|-----------------|-0-0-0-0-0-0-0-0-|-4-4-4-4-4-4-4-4-||
|-2-----0-2-----0-|-----------------|-2-2-2-2-2-2-2-2-||


   1st & 2nd Verses
    A chord diagramAA                 C#m chord diagramC#mC#m               G chord diagramGG
    E chord diagramEE E chord diagramEE E chord diagramEE E chord diagramEE E chord diagramEE E chord diagramEE E chord diagramEE E chord diagramEE   E chord diagramEE E chord diagramEE E chord diagramEE E chord diagramEE E chord diagramEE E chord diagramEE E chord diagramEE E chord diagramEE   E chord diagramEE E chord diagramEE E chord diagramEE E chord diagramEE E chord diagramEE E chord diagramEE E chord diagramEE E chord diagramEE
||--0-0-0-0-0-0-0-0-|-4-4-4-4-4-4-4-4-|-3-3-3-3-3-3-3-3-|
||o-2-2-2-2-2-2-2-2-|-5-5-5-5-5-5-5-5-|-0-0-0-0-0-0-0-0-|
||--2-2-2-2-2-2-2-2-|-6-6-6-6-6-6-6-6-|-0-0-0-0-0-0-0-0-|
||--2-2-2-2-2-2-2-2-|-6-6-6-6-6-6-6-6-|-0-0-0-0-0-0-0-0-|
||o-0-0-0-0-0-0-0-0-|-4-4-4-4-4-4-4-4-|-2-2-2-2-2-2-2-2-|
||------------------|-----------------|-3-3-3-3-3-3-3-3-|


  D chord diagramDD                 A chord diagramAA                 C#m chord diagramC#mC#m               G chord diagramGG
  E chord diagramEE E chord diagramEE E chord diagramEE E chord diagramEE E chord diagramEE E chord diagramEE E chord diagramEE E chord diagramEE   E chord diagramEE E chord diagramEE E chord diagramEE E chord diagramEE E chord diagramEE E chord diagramEE E chord diagramEE E chord diagramEE   E chord diagramEE E chord diagramEE E chord diagramEE E chord diagramEE E chord diagramEE E chord diagramEE E chord diagramEE E chord diagramEE   E chord diagramEE E chord diagramEE E chord diagramEE E chord diagramEE E chord diagramEE E chord diagramEE E chord diagramEE E chord diagramEE
|-2-2-2-2-2-2-2-2-|-0-0-0-0-0-0-0-0-|-4-4-4-4-4-4-4-4-|-3-3-3-3-3-3-3-3--|
|-3-3-3-3-3-3-3-3-|-2-2-2-2-2-2-2-2-|-5-5-5-5-5-5-5-5-|-0-0-0-0-0-0-0-0--|
|-2-2-2-2-2-2-2-2-|-2-2-2-2-2-2-2-2-|-6-6-6-6-6-6-6-6-|-0-0-0-0-0-0-0-0--|
|-0-0-0-0-0-0-0-0-|-2-2-2-2-2-2-2-2-|-6-6-6-6-6-6-6-6-|-0-0-0-0-0-0-0-0--|
|-----------------|-0-0-0-0-0-0-0-0-|-4-4-4-4-4-4-4-4-|-2-2-2-2-2-2-2-2--|
|-----------------|-----------------|-----------------|-3-3-3-3-3-3-3-3--|


                    Pre-Chorus
  D chord diagramDD                  A chord diagramAA       E chord diagramEE   D chord diagramDD
  E chord diagramEE E chord diagramEE E chord diagramEE E chord diagramEE E chord diagramEE E chord diagramEE E chord diagramEE E chord diagramEE    Q  Q  E chord diagramEE E chord diagramEE E chord diagramEE E chord diagramEE   +Q   Q  E chord diagramEE E chord diagramEE E chord diagramEE E chord diagramEE
|-2-2-2-2-2-2-2-2-||----0----0---2-|-(2)--2--2-2-2-2-|
|-3-3-3-3-3-3-3-3-||----2----0---3-|-(3)--3--3-3-3-3-|
|-2-2-2-2-2-2-2-2-||----2----1---2-|-(2)--2--2-2-2-2-|
|-0-0-0-0-0-0-0-0-||----2----2---0-|-(0)--0--0-0-0-0-|
|-----------------||-0--0----2-----|-----------------|
|-----------------||---------0-----|-----------------|


  A chord diagramAA       E chord diagramEE   D chord diagramDD                     A chord diagramAA       E chord diagramEE   D chord diagramDD
  Q  Q  E chord diagramEE E chord diagramEE E chord diagramEE E chord diagramEE   +Q   Q  E chord diagramEE E chord diagramEE E chord diagramEE E chord diagramEE   Q  Q  E chord diagramEE E chord diagramEE E chord diagramEE E chord diagramEE
|----0----0---2-|-(2)--2--2-2-2-2-|----0----0---2-|
|----2----0---3-|-(3)--3--3-3-3-3-|----2----0---3-|
|----2----1---2-|-(2)--2--2-2-2-2-|----2----1---2-|
|----2----2---0-|-(0)--0--0-0-0-0-|----2----2---0-|
|-0--0----2-----|-----------------|-0--0----2-----|
|---------0-----|-----------------|---------0-----|


                    Chorus
                     A chord diagramAA                 F#m chord diagramF#mF#m               A chord diagramAA
  +Q   Q  E chord diagramEE E chord diagramEE E chord diagramEE E chord diagramEE    E chord diagramEE E chord diagramEE E chord diagramEE E chord diagramEE E chord diagramEE E chord diagramEE E chord diagramEE E chord diagramEE   E chord diagramEE E chord diagramEE E chord diagramEE E chord diagramEE E chord diagramEE E chord diagramEE E chord diagramEE E chord diagramEE   E chord diagramEE E chord diagramEE E chord diagramEE E chord diagramEE E chord diagramEE E chord diagramEE E chord diagramEE E chord diagramEE
|-(2)--2--2-2-2-2-||-0-0-0-0-0-0-0-0-|-2-2-2-2-2-2-2-2-|-0-0-0-0-0-0-0-0--|
|-(3)--3--3-3-3-3-||-2-2-2-2-2-2-2-2-|-2-2-2-2-2-2-2-2-|-2-2-2-2-2-2-2-2--|
|-(2)--2--2-2-2-2-||-2-2-2-2-2-2-2-2-|-2-2-2-2-2-2-2-2-|-2-2-2-2-2-2-2-2--|
|-(0)--0--0-0-0-0-||-2-2-2-2-2-2-2-2-|-4-4-4-4-4-4-4-4-|-2-2-2-2-2-2-2-2--|
|-----------------||-0-0-0-0-0-0-0-0-|-4-4-4-4-4-4-4-4-|-0-0-0-0-0-0-0-0--|
|-----------------||-----------------|-2-2-2-2-2-2-2-2-|------------------|


  F#m chord diagramF#mF#m               A chord diagramAA                 F#m chord diagramF#mF#m               A chord diagramAA
  E chord diagramEE E chord diagramEE E chord diagramEE E chord diagramEE E chord diagramEE E chord diagramEE E chord diagramEE E chord diagramEE   E chord diagramEE E chord diagramEE E chord diagramEE E chord diagramEE E chord diagramEE E chord diagramEE E chord diagramEE E chord diagramEE   E chord diagramEE E chord diagramEE E chord diagramEE E chord diagramEE E chord diagramEE E chord diagramEE E chord diagramEE E chord diagramEE   E chord diagramEE E chord diagramEE E chord diagramEE E chord diagramEE E chord diagramEE E chord diagramEE E chord diagramEE E chord diagramEE
|-2-2-2-2-2-2-2-2-|-0-0-0-0-0-0-0-0-|-2-2-2-2-2-2-2-2-|-0-0-0-0-0-0-0-0--|
|-2-2-2-2-2-2-2-2-|-2-2-2-2-2-2-2-2-|-2-2-2-2-2-2-2-2-|-2-2-2-2-2-2-2-2--|
|-2-2-2-2-2-2-2-2-|-2-2-2-2-2-2-2-2-|-2-2-2-2-2-2-2-2-|-2-2-2-2-2-2-2-2--|
|-4-4-4-4-4-4-4-4-|-2-2-2-2-2-2-2-2-|-4-4-4-4-4-4-4-4-|-2-2-2-2-2-2-2-2--|
|-4-4-4-4-4-4-4-4-|-0-0-0-0-0-0-0-0-|-4-4-4-4-4-4-4-4-|-0-0-0-0-0-0-0-0--|
|-2-2-2-2-2-2-2-2-|-----------------|-2-2-2-2-2-2-2-2-|------------------|


                    Bridge
  F#m chord diagramF#mF#m                A chord diagramAA               C chord diagramCC
  E chord diagramEE E chord diagramEE E chord diagramEE E chord diagramEE E chord diagramEE E chord diagramEE E chord diagramEE E chord diagramEE    E chord diagramEE Q  E chord diagramEE E chord diagramEE E chord diagramEE Q    E chord diagramEE E chord diagramEE E chord diagramEE E chord diagramEE E chord diagramEE E chord diagramEE E chord diagramEE E chord diagramEE
|-2-2-2-2-2-2-2-2-||---------------|---0-------------|
|-2-2-2-2-2-2-2-2-||---2--2---2----|-----1-----------|
|-2-2-2-2-2-2-2-2-||--------2------|-0-----0---0---0-|
|-4-4-4-4-4-4-4-4-||------------2--|-----------------|
|-4-4-4-4-4-4-4-4-||-0-------------|---------3---3---|
|-2-2-2-2-2-2-2-2-||---------------|-----------------|


  G chord diagramGG     D chord diagramDD       A chord diagramAA                A chord diagramAA
  |-3-| |-3-|
  Q Q Q Q Q Q   E chord diagramEE E chord diagramEE E chord diagramEE E chord diagramEE E chord diagramEE E chord diagramEE Q    a  a Q.   E chord diagramEE E chord diagramEE E chord diagramEE E chord diagramEE E chord diagramEE
|---------0-2-|----------------|------9------9---9---|
|-------------|---2---2---2----|---10----------------|
|-------------|----------------|-9---------9---9---9-|
|-0-0-0-0-----|----------------|---------------------|
|-------------|-0---0---0---0--|---------------------|
|-------------|----------------|---------------------|


  C chord diagramCC               G chord diagramGG     D chord diagramDD       E chord diagramEE
                  |-3-| |-3-|
  E chord diagramEE Q  E chord diagramEE E chord diagramEE Q.     Q Q Q Q Q Q   W          +W
|---8------8----|-------------|-0--------|-(0)-----||
|------8--------|-----------7-|-0--------|-(0)----o||
|-9------9------|-7-7-7-7-9---|-1--------|-(1)-----||
|---------------|-------------|-2--------|-(2)-----||
|---------------|-------------|-2--------|-(2)----o||
|---------------|-------------|-0--------|-(0)-----||


 Outro
  A chord diagramAA                 F#m chord diagramF#mF#m               A chord diagramAA                 F#m chord diagramF#mF#m
  E chord diagramEE E chord diagramEE E chord diagramEE E chord diagramEE E chord diagramEE E chord diagramEE E chord diagramEE E chord diagramEE   E chord diagramEE E chord diagramEE E chord diagramEE E chord diagramEE E chord diagramEE E chord diagramEE E chord diagramEE E chord diagramEE   E chord diagramEE E chord diagramEE E chord diagramEE E chord diagramEE E chord diagramEE E chord diagramEE E chord diagramEE E chord diagramEE   E chord diagramEE E chord diagramEE E chord diagramEE E chord diagramEE E chord diagramEE E chord diagramEE E chord diagramEE E chord diagramEE
|-0-0-0-0-0-0-0-0-|-2-2-2-2-2-2-2-2-|-0-0-0-0-0-0-0-0-|-2-2-2-2-2-2-2-2--|
|-2-2-2-2-2-2-2-2-|-2-2-2-2-2-2-2-2-|-2-2-2-2-2-2-2-2-|-2-2-2-2-2-2-2-2--|
|-2-2-2-2-2-2-2-2-|-2-2-2-2-2-2-2-2-|-2-2-2-2-2-2-2-2-|-2-2-2-2-2-2-2-2--|
|-2-2-2-2-2-2-2-2-|-4-4-4-4-4-4-4-4-|-2-2-2-2-2-2-2-2-|-4-4-4-4-4-4-4-4--|
|-0-0-0-0-0-0-0-0-|-4-4-4-4-4-4-4-4-|-0-0-0-0-0-0-0-0-|-4-4-4-4-4-4-4-4--|
|-----------------|-2-2-2-2-2-2-2-2-|-----------------|-2-2-2-2-2-2-2-2--|


  A chord diagramAA                 F#m chord diagramF#mF#m               A chord diagramAA
  E chord diagramEE E chord diagramEE E chord diagramEE E chord diagramEE E chord diagramEE E chord diagramEE E chord diagramEE E chord diagramEE   E chord diagramEE E chord diagramEE E chord diagramEE E chord diagramEE E chord diagramEE E chord diagramEE E chord diagramEE E chord diagramEE   E chord diagramEE E chord diagramEE E chord diagramEE E chord diagramEE E chord diagramEE E chord diagramEE E chord diagramEE E chord diagramEE
|-0-0-0-0-0-0-0-0-|-2-2-2-2-2-2-2-2-|-0-0-0-0-0-0-0-0-|
|-2-2-2-2-2-2-2-2-|-2-2-2-2-2-2-2-2-|-2-2-2-2-2-2-2-2-|
|-2-2-2-2-2-2-2-2-|-2-2-2-2-2-2-2-2-|-2-2-2-2-2-2-2-2-|
|-2-2-2-2-2-2-2-2-|-4-4-4-4-4-4-4-4-|-2-2-2-2-2-2-2-2-|
|-0-0-0-0-0-0-0-0-|-4-4-4-4-4-4-4-4-|-0-0-0-0-0-0-0-0-|
|-----------------|-2-2-2-2-2-2-2-2-|-----------------|


  F#m chord diagramF#mF#m                   A chord diagramAA                        F#m chord diagramF#mF#m        A chord diagramAA
  W          +H.      E chord diagramEE E chord diagramEE     +Q   E chord diagramEE E chord diagramEE E chord diagramEE E chord diagramEE E chord diagramEE E chord diagramEE   Q  Q  Q  E chord diagramEE E chord diagramEE   7x
|-2--------|-(2)------2-0-||--(0)--0-0-0-0-0-0-|-2--2--2--2-0---||
|-2--------|-(2)------2-2-||o-(2)--2-2-2-2-2-2-|-2--2--2--2-2--o||
|-2--------|-(2)------2-2-||--(2)--2-2-2-2-2-2-|-2--2--2--2-2---||
|-4--------|-(4)------4-2-||--(2)--2-2-2-2-2-2-|-4--4--4--4-2---||
|-4--------|-(4)------4-0-||o-(0)--0-0-0-0-0-0-|-4--4--4--4-0--o||
|-2--------|-(2)------2---||-------------------|-2--2--2--2-----||


Duration Legend
---------------
W - whole; H chord diagramHH - half; Q - quarter; E chord diagramEE - 8th; S - 16th; T - 32nd; X - 64th; a - acciaccatura
+ - note tied to previous; . - note dotted; .. - note double dotted
Uncapitalized letters represent notes that are staccato (1/2 duration)
Irregular groupings are notated above the duration line
Duration letters will always appear directly above the note/fret number it represents the
duration for.  Duration letters with no fret number below them represent rests.  Multi-
bar rests are notated in the form Wxn, where n is the number of bars to rest for.  Low
melody durations appear below the staff

Tablature Legend
----------------
 h   - hammer-on
 p   - pull-off
 b   - bend
 pb  - pre-bend
 r   - bend release (if no number after the r, then release immediately)
 /\  - slide into or out of (from/to "nowhere")
 s   - legato slide
 S   - shift slide
  - natural harmonic
[n]  - artificial harmonic
n(n) - tapped harmonic
 ~   - vibrato
 tr  - trill
 T   - tap
 TP  - trem. picking
 PM  - palm muting
\n/  - tremolo bar dip; n = amount to dip
 \n  - tremolo bar down
 n/  - tremolo bar up
/n\  - tremolo bar inverted dip
 =   - hold bend; also acts as connecting device for hammers/pulls
 <>  - volume swell (louder/softer)
 x   - on rhythm slash represents muted slash
 o   - on rhythm slash represents single note slash

Misc Legend
-----------
 |  - bar
||  - double bar
||o - repeat start
o|| - repeat end
*|  - double bar (ending)
 :  - bar (freetime)
 $  - Segno
 &  - Coda
Tempo markers -  = BPM(8/16=s8/s16), where s8 = swing 8ths, s16 = swing 16ths

Other versions of Itchycoo Park

- Itchycoo parkChords
- Itchycoo park (Ver. 2)Chords
- Itchycoo parkTabs

Comment this song and these guitar tabs

Do you have corrections, comments on the guitar tabs, thoughts about the song or a message to the author? Write them below.