Log in

One click and you are in

Login with Facebook Login with Google

Why sign up and log in

Guitar Tabs Explorer
Small Faces bass tabs for Hey girl

Bass tabs with lyrics

Q=181


Intro
   W          Q  Q  Q  Q    Q  Q  Q  Q
G||-------------------|----------------------|----------------------|
D||-------------------|-------9---------9----|-------9---------9----|
A||-------------------|--7---------7---------|--7---------7---------|
E||-------------------|----------------------|----------------------|

                         Verse 1
 Q  Q  Q  Q    Q  Q  E  E Q    H    Q  Q
----------------------|-------------------------|---------------------|
-------9---------9----|-------9-----------------|---------------------|
--7---------7---------|--7---------7s--2--2S----|--7------------------|
----------------------|-------------------------|-----------7----7----|
 Q  Q  Q  Q    H    Q  Q    Q  Q  Q  Q
----------------------|---------------------|----------------------|
----------------------|---------------------|----------------------|
--7----7----5----4----|--7------------------|--7----7----5----4----|
----------------------|-----------7----7----|----------------------|


 H    Q  Q    Q  Q  Q  Q    H    Q  Q
---------------------|----------------------|---------------------|
---------------------|----------------------|--9------------------|
--7------------------|--7----7----5----4----|-----------9----9----|
-----------7----7----|----------------------|---------------------|


 H    Q  Q    H    H      H    Q  Q
---------------------|--------------------|---------------------|
--9--------9----8----|--7-----------------|--7-------------7----|
---------------------|-----------7--------|-----------7---------|
---------------------|--------------------|---------------------|

                      Refrain 1
 H    Q  Q    H    Q  Q    H    Q  Q
---------------------|---------------------|---------------------|
---------------------|--9-------------9----|---------------------|
--7------------------|-----------9---------|--7-------------7----|
-----------7----7----|---------------------|-----------7---------|

 Q  Q  H      H    Q  Q    Q  Q  H
---------------------|---------------------|---------------------|
--7----7----7--------|---------------------|--9----9----9--------|
---------------------|--9-------------9----|---------------------|
---------------------|-----------9---------|---------------------|


 H    Q  Q    Q  Q  H      H    Q  Q
---------------------|---------------------|---------------------|
---------------------|--7----7----7--------|---------------------|
--7-------------7----|---------------------|--9-------------9----|
-----------7---------|---------------------|-----------9---------|

            Verse 2
 Q  Q  Q  Q    H    Q  Q    Q  Q  Q  Q
-----------------------|---------------------|----------------------|
--9----9----9----------|---------------------|----------------------|
-----------------2S----|--7------------------|--7----7----5----4----|
-----------------------|-----------7----7----|----------------------|


 H    Q  Q    H    Q  Q    H    Q  Q
---------------------|---------------------|---------------------|
---------------------|---------------------|---------------------|
--7------------------|--7--------5----4----|--7------------------|
-----------7----7----|---------------------|-----------7----7----|


 H    Q  Q    H    Q  Q    H    Q  Q
---------------------|---------------------|---------------------|
---------------------|--9------------------|--9--------9----8----|
--7--------5----4----|-----------9----9----|---------------------|
---------------------|---------------------|---------------------|


 H    H      H    Q  Q    H    Q  Q
--------------------|---------------------|---------------------|
--7-----------------|--7-------------7----|---------------------|
-----------7--------|-----------7---------|--7------------------|
--------------------|---------------------|-----------7----7----|

           Refrain 2
 H    Q  Q    H    Q  Q    Q  Q  H
---------------------|---------------------|---------------------|
--9-------------9----|---------------------|--7----7----7--------|
-----------9---------|--7-------------7----|---------------------|
---------------------|-----------7---------|---------------------|


 H    Q  Q    Q  Q  H      H    Q  Q
---------------------|---------------------|---------------------|
---------------------|--9----9----9--------|---------------------|
--9-------------9----|---------------------|--7-------------7----|
-----------9---------|---------------------|-----------7---------|


 Q  Q  H      H    Q  Q    Q  Q  Q  Q
---------------------|---------------------|----------------------|
--7----7----7--------|---------------------|--9----9----9----8----|
---------------------|--9-------------9----|----------------------|
---------------------|-----------9---------|----------------------|


Bridge
 H    H      H    Q  Q    H    Q  Q
--------------------|---------------------|---------------------|
--7-----------------|--7-------------7----|---------------------|
-----------7--------|-----------7---------|--7------------------|
--------------------|---------------------|-----------7----7----|


 Q  Q  Q  Q    H    H      H    Q  Q
----------------------|--------------------|---------------------|
----------------------|--------------------|---------------------|
--7----7----7----6----|--4-----------------|--4-------------4----|
----------------------|-----------4--------|-----------4---------|


 H    H      H    H      H    Q  Q
--------------------|--------------------|---------------------|
--7-----------------|--9-----------------|--9-------------9----|
-----------7--------|-----------9--------|-----------9---------|
--------------------|--------------------|---------------------|


Break (instrumental)
 Q  Q  Q  Q    Q  Q  Q  Q    Q  Q  Q  Q
----------------------|----------------------|----------------------|
-------9---------9----|-------9---------9----|-------9---------9----|
--7---------7---------|--7---------7---------|--7---------7---------|
----------------------|----------------------|----------------------|


 Q  Q  Q  Q    Q  Q  Q  Q    Q  Q  Q  Q
----------------------|----------------------|----------------------|
-------9---------9----|-------9---------9----|-------9---------9----|
--7---------7---------|--7---------7---------|--7---------7---------|
----------------------|----------------------|----------------------|

                         Verse 3
 Q  Q  Q  Q    Q  Q  E  E Q    H    H
----------------------|-------------------------|--------------------|
-------9---------9----|-------9-----------------|--------------------|
--7---------7---------|--7---------7s--2--2S----|--7-----------------|
----------------------|-------------------------|-----------7--------|


 H    Q  Q    H    H      H    Q  Q
---------------------|--------------------|---------------------|
---------------------|--------------------|---------------------|
--7--------5----4----|--7-----------------|--7--------5----4----|
---------------------|-----------7--------|---------------------|


 H    H      Q  Q  Q  Q    H    H
--------------------|----------------------|--------------------|
--------------------|----------------------|--9-----------------|
--7-----------------|--7----7----5----4----|-----------9--------|
-----------7--------|----------------------|--------------------|


 Q  Q  Q  Q    H    H      H    Q  Q
----------------------|--------------------|---------------------|
--9----9----9----8----|--7-----------------|--7-------------7----|
----------------------|-----------7--------|-----------7---------|
----------------------|--------------------|---------------------|

                      Refrain 3
 H    Q  Q    H    Q  Q    H    Q  Q
---------------------|---------------------|---------------------|
---------------------|--9-------------9----|---------------------|
--7------------------|-----------9---------|--7-------------7----|
-----------7----7----|---------------------|-----------7---------|


 Q  Q  H      H    Q  Q    Q  Q  H
---------------------|---------------------|---------------------|
--7----7----7--------|---------------------|--9----9----9--------|
---------------------|--9-------------9----|---------------------|
---------------------|-----------9---------|---------------------|


 H    Q  Q    Q  Q  H      H    Q  Q
---------------------|---------------------|---------------------|
---------------------|--7----7----7--------|---------------------|
--7-------------7----|---------------------|--9-------------9----|
-----------7---------|---------------------|-----------9---------|

           Outro (fade-out...)
 Q  Q  H      H    Q  Q    Q  Q  H
---------------------|---------------------|---------------------|
--9----9----9--------|---------------------|--7----7----7--------|
---------------------|--7-------------7----|---------------------|
---------------------|-----------7---------|---------------------|


 H    Q  Q    Q  Q  H      H    Q  Q
---------------------|---------------------|---------------------|
---------------------|--9----9----9--------|---------------------|
--9-------------9----|---------------------|--7-------------7----|
-----------9---------|---------------------|-----------7---------|


 H    Q  Q    H    Q  Q    H    Q  Q
---------------------|---------------------|---------------------|
--7-------------7----|---------------------|--9-------------9----|
-----------7---------|--9-------------9----|-----------9---------|
---------------------|-----------9---------|---------------------|


 H    Q  Q    H    Q  Q    H    Q  Q
---------------------|---------------------|---------------------|
---------------------|--7-------------7----|---------------------|
--7-------------7----|-----------7---------|--9-------------9----|
-----------7---------|---------------------|-----------9---------|


 H    Q  Q    H    Q  Q    H    Q  Q
---------------------|---------------------|---------------------|
--9-------------9----|---------------------|--7-------------7----|
-----------9---------|--7-------------7----|-----------7---------|
---------------------|-----------7---------|---------------------|


 H    Q  Q    H    Q  Q
---------------------|---------------------||
---------------------|--9-------------9----||
--9-------------9----|-----------9---------||
-----------9---------|---------------------||



Duration Legend
---------------
W - whole
H - half
Q - quarter
E - 8th
S - 16th
T - 32nd
X - 64th
. - note dotted
|-n-| - n-tuplets


Tablature Legend
----------------
L - tied note
x - dead note
g - grace note
(n) - ghost note
> - accentuded note
NH - natural harmonic
AH - artificial harmonic
TH - tapped harmonic
SH - semi harmonic
PH - pitch harmonic
h - hammer on
p - pull off
b - bend
br - bendRelease
pb - preBend
pbr - preBendRelease
brb - bendReleaseBend
\n/ - tremolo bar dip
\n - tremolo bar dive
-/n - tremolo bar Release up
/n\ - tremolo bar inverted dip
/n - tremolo bar return
-\n - tremolo bar Release down
S - shift slide
s - legato slide
/ - slide into from below or out of upwards
\ - slide into from above or out of downwards
~ - vibrato
W - wide vibrato
tr - trill
TP - tremolo picking
T - tapping
S - slap
P - pop
< - fade in
^ - brush up

Almost there ...

Sign in to get your own page with links to favourite songs and more. You are just one click away...

Login with Facebook Login with Google