Search tabs and chords

Search for song, artist or band

Log in

One click and you are in

Login with Facebook Login with Google

Why sign up and log in

Guitar Tabs Explorer
Small Faces bass tabs for Grow your own

Bass tabs with lyrics

The Small Faces
Written by Steve Marriott, Ian McLagan, Kenny Jones and Ronnie Lane; released
as a B-side to "Sha-La-La-La-Lee".

Intro:
G|------- ------- ------- -------|------- ------- ------- -------|
D|-------------------------------|-------------------------------|
A|7---7-----------5-------5------|7---7-----------5-------5------|
E|------------7------------------|------------7---------------7--|

G|------- ------- ------- -------|------- ------- ------- -------|
D|-------------------------------|-------------------------------|
A|7---7-----------5-------5------|7---7-----------5-------5------|
E|------------7-------7----------|------------7-------7----------|


Verse:
G|------- ------- ------- -------|------- ------- ------- -------|
D|-------------------------------|-------------------------------|
A|7---7-----------5-------5------|7---7-----------5-------5------|
E|------------7---------------7--|------------7---------------7--|



G|------- ------- ------- -------|------- ------- ------- -------|
D|-------------------------------|-------------------------------|
A|7---7-----------5-------5------|7---7-----------5-------5------|
E|------------7---------------7--|------------7-------7----------|



G|------- ------- ------- -------|------- ------- ------- -------|
D|7---7-----------5-------5------|7---7-----------5-------5------|
A|------------7------------------|------------7------------------|
E|-------------------------------|-------------------------------|


G|------- ------- ------- -------|------- ------- ------- -------|
D|-------------------------------|-------------------------------|
A|7---7-----------5-------5------|7---7-----------5-------5------|
E|------------7-------7----------|------------7------------------|



G|------- ------- ------- -------|------- ------- ------- -------|
D|9---9-----------7-------7------|7------------------------------|
A|------------9-------9-------9--|----------------------------5--|
E|-------------------------------|-------------------------------|



G|------- ------- ------- -------|------- ------- ------- -------|
D|-------------------------------|-------------------------------|
A|7---7-----------5-------5------|7---7-----------5-------5------|
E|------------7-------7----------|------------7-------7----------|


Verse:
G|------- ------- ------- -------|------- ------- ------- -------|
D|-------------------------------|-------------------------------|
A|7---7-7---------5-------5------|7---7-----------5-------5------|
E|------------7-------7----------|------------7-------7-------7--|



G|------- ------- ------- -------|------- ------- ------- -------|
D|-------------------------------|-------------------------------|
A|7---7-----------5-------5------|7---7-----------5-------5------|
E|------------7-------7----------|------------7-------7----------|



G|------- ------- ------- -------|------- ------- ------- -------|
D|7---7-----------5-------5------|7---7-----------5-------5------|
A|------------7------------------|------------7-------7----------|
E|-------------------------------|-------------------------------|



G|------- ------- ------- -------|------- ------- ------- -------|
D|-------------------------------|-------------------------------|
A|7---7-----------5-------5------|7---7-----------5---5---5------|
E|------------7-------7----------|------------7------------------|



G|------- ------- ------- -------|------- ------- ------- -------|
D|9---9-----------7-------7------|7------------------------------|
A|------------9-------9-------9--|----------------------------5--|
E|-------------------------------|-------------------------------|



G|------- ------- ------- -------|------- ------- ------- -------|
D|-------------------------------|-------------------------------|
A|7---7-----------5-------5------|7---7-----------5-------5------|
E|------------7---------------7--|------------7-------7----------|


Verse:
G|------- ------- ------- -------|------- ------- ------- -------|
D|-------------------------------|-------------------------------|
A|7---7-----------5-------5---5--|7---7-----------5-------5---5--|
E|------------7------------------|------------7-------7----------|



G|------- ------- ------- -------|------- ------- ------- -------|
D|-------------------------------|-------------------------------|
A|7---7-----------5-------5---5--|7---7-----------5-------5---5--|
E|------------7------------------|------------7------------------|



G|------- ------- ------- -------|------- ------- ------- -------|
D|7---7-----------5-------5------|7---7-----------5-------5------|
A|------------7-------7----------|------------7-------7----------|
E|-------------------------------|-------------------------------|



G|------- ------- ------- -------|------- ------- ------- -------|
D|-------------------------------|-------------------------------|
A|7---7-----------5-------5------|7---7-----------5-------5------|
E|------------7-------7----------|------------7------------------|



G|------- ------- ------- -------|------- ------- ------- -------|
D|9---9-----------7-------7------|7------------------------------|
A|------------9-------9----------|----------------------------5--|
E|-------------------------------|-------------------------------|



G|------- ------- ------- -------|------- ------- ------- -------|
D|-------------------------------|-------------------------------|
A|7---7-----------5-------5------|7---7-----------5-------5------|
E|------------7-------7----------|------------7------------------|


Verse:
G|------- ------- ------- -------|------- ------- ------- -------|
D|-------------------------------|-------------------------------|
A|7---7-----------5-------5------|7---7-7---------5-------5------|
E|------------7------------------|------------7------------------|



G|------- ------- ------- -------|------- ------- ------- -------|
D|-------------------------------|-------------------------------|
A|7---7-----------5-------5------|7---7-----------5-------5------|
E|----------7-7-------7-------7--|------------7------------------|



G|------- ------- ------- -------|------- ------- ------- -------|
D|7---7-----------5-------5------|7---7-----------5-------5------|
A|------------7-------7-------7--|------------7-------7-------5--|
E|-------------------------------|-------------------------------|



G|------- ------- ------- -------|------- ------- ------- -------|
D|-------------------------------|-------------------------------|
A|7---7-----------5-------5------|7---7-----------5-------5------|
E|------------7-------7----------|------------7-------7----------|



G|------- ------- ------- -------|------- ------- ------- -------|
D|9---9-----------7-------7------|7------------------------------|
A|------------9-------9-------9--|----------------------------5--|
E|-------------------------------|-------------------------------|



G|------- ------- ------- -------|------- ------- ------- -------|
D|-------------------------------|-------------------------------|
A|7---------------5-------5------|7---7-----------5-------5------|
E|------------7---------------7--|------------7-------7----------|


Verse:
G|------- ------- ------- -------|------- ------- ------- -------|
D|-------------------------------|-------------------------------|
A|7---7-----------5-------5------|7---7-----------5-------5------|
E|------------7-------7----------|------------7-------7-------7--|



G|------- ------- ------- -------|------- ------- ------- -------|
D|-------------------------------|-------------------------------|
A|7---7-----------5-------5------|7---7-----------5-------5------|
E|------------7-------7----------|------------7-------7-------7--|



G|------- ------- ------- -------|------- ------- ------- -------|
D|7---7-----------5-------5------|7---7-----------5-------5------|
A|------------7------------------|------------7-------7----------|
E|-------------------------------|-------------------------------|



G|------- ------- ------- -------|------- ------- ------- -------|
D|-------------------------------|-------------------------------|
A|7---7-----------5-------5------|7---7-----------5-------5------|
E|------------7-------7----------|------------7------------------|



G|------- ------- ------- -------|------- ------- ------- -------|
D|9---9-----------7-------7------|7------------------------------|
A|------------9-------9----------|----------------------------5--|
E|-------------------------------|-------------------------------|



G|------- ------- ------- -------|------- ------- ------- -------|
D|-------------------------------|-------------------------------|
A|7---------------5-------5------|7---7-----------5-------5------|
E|------------7------------------|------------7-------7----------|


Verse:
G|------- ------- ------- -------|------- ------- ------- -------|
D|-------------------------------|-------------------------------|
A|7---7-----------5-------5------|7---7-----------5-------5------|
E|------------7------------------|------------7---------------7--|



G|------- ------- ------- -------|------- ------- ------- -------|
D|-------------------------------|-------------------------------|
A|7---7-----------5-------5------|7---7-----------5-------5------|
E|------------7-------7----------|------------7-------7----------|



G|------- ------- ------- -------|------- ------- ------- -------|
D|7---7-----------5-------5------|7---7-----------5-------5------|
A|------------7-------7----------|------------7-------7-------5--|
E|-------------------------------|-------------------------------|



G|------- ------- ------- -------|------- ------- ------- -------|
D|-------------------------------|-------------------------------|
A|7---7-----------5-------5------|7---7-----------5-------5------|
E|------------7-------7-------7--|------------7-------7----------|



G|------- ------- ------- -------|------- ------- ------- -------|
D|9---------------7-------7------|7------------------------------|
A|----9-------9-------9-------9--|----------------------------5--|
E|-------------------------------|-------------------------------|



G|------- ------- ------- -------|------- ------- ------- -------|
D|-------------------------------|-------------------------------|
A|7---7-----------5-------5------|7---7-----------5-------5------|
E|------------7-------7-------7--|------------7-------7-------7--|
fade out...

Almost there ...

Sign in to get your own page with links to favourite songs and more. You are just one click away...

Login with Facebook Login with Google