Guitar Tabs Explorer
Small Faces bass tabs for All or nothing

All Or Nothing bass tab


Be the first to rate

All Or Nothing bass tab by Small Faces

Bass tabs

Print

All Or Nothing.btab
Small Faces
TablEdited by Jan Bjorklund
Tuning : E A D G 	Time Signature: 4/4

 tempo 112       |       |        |       |       |       |
|--------------------------------|--------------------------------|
|--------------------------------|0-------------------------------|
|--------------------------------|--------------------------------|
|--------------------------------|--------------------------------|

 |       |       |       |        |       |       |       |
|--------------------------------|--------------------------------|
|0-------------------------------|0-------------------------------|
|--------------------------------|--------------------------------|
|--------------------------------|--------------------------------|

 |       |       |       |        |       I thought you'd listen..
|--------------------------------|--------------------------------|
|0-----------------------0---0---|--------------------------------|
|--------------------------------|0-------0-----------------------|
|--------------------------------|--------------------------------|

 |       |       |       |        |       |       |       |
|--------------------------------|--------------------------------|
|--------------------------------|0-------0-----------0---0---0---|
|0-------0-------------------0---|--------------------------------|
|--------------------------------|--------------------------------|

 |       |       |       |        |       But now I see...|
|--------------------------------|--------------------------------|
|0-------------------0---0---0---|--------------------------------|
|--------------------------------|0-------0-----------------------|
|--------------------------------|--------------------------------|

 |       |       |       |        |       |       |       |
|--------------------------------|--------------------------------|
|--------------------------------|0-------------------0---0---0---|
|0-------0-------------------0---|--------------------------------|
|--------------------------------|--------------------------------|

 |       |       |       |        |       Got to make you see...
|--------------------------------|--------------------------------|
|0-------0-----0-0---------------|--------------------------------|
|--------------------0-----------|--------------------------------|
|----------------------------3---|--------3-------3-------3-------|

 |       |       |       |        |       |       |       |
|--------------------------------|--------------------------------|
|--------------------0-----------|--------------------------------|
|----------------------------0---|--------0-------0---0---0---0---|
|3-------3-------3---------------|--------------------------------|

 |       |       Yes it't|all...  |       |       all or nothing..
|--------------------------------|--------------------------------|
|----------------------------0---|--------0-------0---0---0---0---|
|0-------0-----------0-----------|--------------------------------|
|----------------3---------------|--------------------------------|

 |       |       |       |        |       |       |       |
|--------------------------------|--------------------------------|
|0-------0---0---0---------------|--------------------------------|
|--------------------0-------2---|--------2-------2---2---2---2---|
|--------------------------------|--------------------------------|

 |       |       |       |        |       |       |       |
|--------------------------------|--------------------------------|
|--------------------------------|--------------------------------|
|2-------2-------2---0-----------|--------------------------------|
|----------------------------3---|3-------3-------3---3---3---3---|

 |       |       |       |        |       |       |       |
|--------------------------------|--------------------------------|
|--------------------------------|0-------------------------------|
|--------------------0-----------|--------------------------------|
|3-------3-------3---------------|--------------------------------|

Other versions of All Or Nothing

- All or nothing (Ver. 2)Bass tabs

Comment this song and these bass tabs

Do you have corrections, comments on the bass tabs, thoughts about the song or a message to the author? Write them below.