Search tabs and chords

Search for song, artist or band

Log in

One click and you are in

Login with Facebook Login with Google

Why sign up and log in

Guitar Tabs Explorer
Small Faces bass tabs for All or nothing (Ver. 2)

Bass tabs with lyrics

ALL OR NOTHING (Bassline)

As recorded by The Small Faces
(From the 1966 Album FROM THE BEGINNING)

Words and Music by Steve Mariott & Ronnie Lane

Transcribed by Slowhand
Gtr I (E A D G) - 'Ronnie Lane - Bass'

 Intro
  Q=114
 4/4
  Gtr I
  W          W          W          H.      E E
|----------|----------|----------|-------------|
|----------|----------|----------|-------------|
|-5--------|-5--------|-5--------|-5-------5-5-|
|----------|----------|----------|-------------|


   1st - 3rd Verses
    $
    Q  H.        Q  H    E E   Q  Q  E E E E   H    E E E E
||-------------|-------------|---------------|--------------|
||o------------|-------------|---------------|--------------|
||o------------|-------------|-5--5----5-5-5-|-5------5-5-5-|
||--5--5-------|-5--5------5-|---------------|--------------|


  Q  H.        Q  H    E E   Q  Q  E E E E   Q  Q  E E E E
|------------|-------------|---------------|----------------|
|------------|-------------|---------------|----------------|
|------------|-------------|-5--5----5-5-5-|-5--5--5--------|
|-5--5-------|-5--5------5-|---------------|---------5---3--|

  +Q   Q  Q  Q    Q  Q  E E E E   +Q   Q  E E E E   Q  Q  E E E E
|---------------|---------------|-----------------|----------------||
|---------------|---------------|-----------------|----------------||
|---------------|---------5-----|-----------------|-------------5--||
|-(3)--3--3--3--|-3--3--3-----5-|-(5)--5--5-5-5-5-|-5--5--5-3------||


 Chorus
  +Q   Q  E E E E   Q  E E E Q  E   Q  E E E E E E   E E E E E E E E
|-----------------|---------------|----------------|------------------|
|-----------------|---------------|----------------|------------------|
|-(5)--5--5-5-5-5-|-5--5-5-5----2-|-2--2-2-2-2-2-2-|-2-2-2-2-2-2------|
|-----------------|----------5----|----------------|-------------0-3--|


          To Coda
  Q  E E E E E E    E E H.        W          W
|-----------------|-------------|----------|------|
|-----------------|-------------|----------|------|
|-----------------|-------------|-5--------|-5----|
|-3--3-3-3-3-3-3--|-3-3-3-------|----------|------|


  1.                         2.
                                          D.S. al Coda
  W          H    E E E E     W          H    E E E E
|----------|---------------||----------|---------------||
|----------|--------------o||----------|---------------||
|-5--------|-5------5-5-5-o||-5--------|-5------5-5-5--||
|----------|---------------||----------|---------------||


                                                       Out-Chorus
  &
  E E E E E E E E   E E E E E E E E   E E E E Q.   E    E E E E E E E E
|-----------------|-----------------|----------------||------------------|
|-----------------|-----------------|----------------||------------------|
|-----------------|-----------------|--------------2-||-5-5-5-5-5-5-5-5--|
|-3-3-3-3-3-3-3-5-|-5-5-5-5-5-5-5-5-|-5-5-5-5-5------||------------------|


  E E E E E E E E   E E E E E E E E   E E E E E E E E   E E E E E E E E
|-----------------|-----------------|-----------------|------------------|
|-----------------|-----------------|-----------------|------------------|
|-5-5-5-5-5-------|-2-2-2-2-2-2-2-2-|-2-2-2-2-2-0-----|------------------|
|-----------5---5-|-----------------|-------------0-3-|-3-3-3-3-3-3-3-3--|


  E E E E E E E E   Q  Q  H      E E E E E E E E   Q  E E Q  E E
|-----------------|------------|-----------------|----------------|
|-----------------|------------|-----------------|----------------|
|-----------------|------------|-----------------|-5--5-5-5--5-5--|
|-3-3-3-3-3-3-3-3-|-5--5--5----|-5-5-5-5-5-5-5-5-|----------------|


  +Q   Q  E E Q    E E E E E E E E   E E E E E E E E   E E Q  E E E E
|----------------|-----------------|-----------------|-----------------|
|----------------|-----------------|-----------------|-----------------|
|-(5)--5--5-5-5--|-2-2-2-2-2-2-2-2-|-2-2-2-2-2-2-2-2-|-----------------|
|----------------|-----------------|-----------------|-3-3-3--3-3-3-3--|


  E E E E E E E E   W          E H.      E   E H.      E   W
|-----------------|----------|-------------|-------------|------*|
|-----------------|----------|-------------|-------------|------*|
|-----------------|-5--------|-5-5---------|-5-5---------|-5----*|
|-3-3-3-3-3-3-3-3-|----------|-------------|-------------|------*|


Duration Legend
---------------
W - whole; H - half; Q - quarter; E - 8th; S - 16th; T - 32nd; X - 64th; a - acciaccatura
+ - note tied to previous; . - note dotted; .. - note double dotted
Uncapitalized letters represent notes that are staccato (1/2 duration)
Irregular groupings are notated above the duration line
Duration letters will always appear directly above the note/fret number it represents the
duration for.  Duration letters with no fret number below them represent rests.  Multi-
bar rests are notated in the form Wxn, where n is the number of bars to rest for.  Low
melody durations appear below the staff

Tablature Legend
----------------
 h   - hammer-on
 p   - pull-off
 b   - bend
 pb  - pre-bend
 r   - bend release (if no number after the r, then release immediately)
 /\  - slide into or out of (from/to "nowhere")
 s   - legato slide
 S   - shift slide
  - natural harmonic
[n]  - artificial harmonic
n(n) - tapped harmonic
 ~   - vibrato
 tr  - trill
 T   - tap
 TP  - trem. picking
 PM  - palm muting
\n/  - tremolo bar dip; n = amount to dip
 \n  - tremolo bar down
 n/  - tremolo bar up
/n\  - tremolo bar inverted dip
 =   - hold bend; also acts as connecting device for hammers/pulls
 <>  - volume swell (louder/softer)
 x   - on rhythm slash represents muted slash
 o   - on rhythm slash represents single note slash

Misc Legend
-----------
 |  - bar
||  - double bar
||o - repeat start
o|| - repeat end
*|  - double bar (ending)
 :  - bar (freetime)
 $  - Segno
 &  - Coda
Tempo markers -  = BPM(8/16=s8/s16), where s8 = swing 8ths, s16 = swing 16ths

Other versions of All Or Nothing

All or nothingBass tabs

Almost there ...

Sign in to get your own page with links to favourite songs and more. You are just one click away...

Login with Facebook Login with Google