Log in

One click and you are in

Login with Facebook Login with Google

Why sign up and log in

Guitar Tabs Explorer
Slowdive bass tabs for Sugar for the pill

Bass tabs

Slowdive - Sugar for the Pill
From the album, _Slowdive_ (2017).
Bass tab by Charles Savoie - tabs@uglymofo.com


Intro - 0:19:
G|-----------------|-----------------|-------------------------|-----------------|
D|-----------------|-2-2-2-2/5-5-5-5/|-10----10-10-12-10-10-10\|-5-5-5-7---5-----|
A|-3-3-3-3-5-5-5-0-|-----------------|-------------------------|-------------7-5-|
E|-----------------|-----------------|-------------------------|-----------------|

G|-----------------|-----------------|-----------------|-----------------|
D|-----------------|-----------------|-----------------|-----------------|
A|-3-3-3-3-0-0-0-0-|-----------------|-3---3-3-5-3-3---|-----------------|
E|-----------------|-0-0-0-0-3-3-3-0-|---------------0-|-3-3-3-5---3-3-0-|
Verse 1 - 0:39:
G|-----------------|-----------------|-------------------------|-----------------|
D|-----------------|-2-2-2-2/5-5-5-5/|-10----10-10-12-10-10-10\|-5-5-5-7---5-----|
A|-3-3-3-3-5-5-5-0-|-----------------|-------------------------|-------------7-5-|
E|-----------------|-----------------|-------------------------|-----------------|

G|-----------------|-----------------|-----------------|-----------------|
D|-----------------|-----------------|-----------------|-----------------|
A|-3-3-3-3-0-0-0-0-|-----------------|-3---3-3-5-3-3---|-----------------|
E|-----------------|-0-0-0-0-3-3-3-0-|---------------0-|-3-3-3-5---3-3-3-|


Chorus 1 - 0:58:
G|-----------------|-----------------|-----------------|-----------------|
D|-------7-7-5-5-5-|-5---------------|-----7-7-7-5-5-5-|-5---------------|
A|-0-0-0-----------|---3-3-3-3-5-5-5-|-0-0-------------|---3-3-3-3-5-5-5-|
E|-----------------|-----------------|-----------------|-----------------|

G|-----------------|-----------------|-----------------|-----------------|
D|-----7-7-7-5-5-5-|-5---------------|-----7-7-7-5-5-5-|-5---------------|
A|-0-0-------------|---3-3-3-3-5-5-5-|-0-0-------------|---3-3-3-3-5-5-5-|
E|-----------------|-----------------|-----------------|-----------------|

G|-----------------|-----------------|-----------------|-----------------|
D|-------7-7-5-5-5-|-5---------------|-----7-7-7-5-5-5-|-5---------------|
A|-0-0-0-----------|---3-3-3-3-5-5-5-|-0-0-------------|---3-3-3-3-5-5-5-|
E|-----------------|-----------------|-----------------|-----------------|

G|-----------------|-----------------|-----------------|-----------------|
D|-------7-7-5-5-5-|-5---------------|-------7-7-5-5-5-|-5---------------|
A|-0-0-0-----------|---3-3-3-3-5-5-5-|-0-0-0-----------|---3-3-3-3-5-5-5-|
E|-----------------|-----------------|-----------------|-----------------|

Solo - 1:38:
G|-----------------|-----------------|-------------------------|-----------------|
D|-----------------|-2-2-2-2/5-5-5-5/|-10----10-10-12-10-10-10\|-5-5-5-7---5-----|
A|-3-3-3-3-5-5-5-0-|-----------------|-------------------------|-------------7-5-|
E|-----------------|-----------------|-------------------------|-----------------|

G|-----------------|-----------------|-----------------|-----------------|
D|-----------------|-----------------|-----------------|-----------------|
A|-3-3-3-3-0-0-0-0-|-----------------|-3---3-3-5-3-3---|-----------------|
E|-----------------|-0-0-0-0-3-3-3-0-|---------------0-|-3-3-3-5---3-----|


Verse 2 - 1:57:
G|-----------------|-----------------|-------------------------|-----------------|
D|-----------------|-2-2-2-2/5-5-5-5/|-10----10-10-12-10-10-10\|-5-5-5-7---5-----|
A|-3-3-3-3-5-5-5-0-|-----------------|-------------------------|-------------7-5-|
E|-----------------|-----------------|-------------------------|-----------------|

G|-----------------|-----------------|-----------------|-----------------|
D|-----------------|-----------------|-----------------|-----------------|
A|-3-3-3-3-0-0-0-0-|-----------------|-3---3-3-5-3-3---|-----------------|
E|-----------------|-0-0-0-0-3-3-3-0-|---------------0-|-3-3-3-5---3-3-3-|


Chorus 2 - 2:17:
G|-----------------|-----------------|-----------------|-----------------|
D|-------7-7-5-5-5-|-5---------------|-----7-7-7-5-5-5-|-5---------------|
A|-0-0-0-----------|---3-3-3-3-5-5-5-|-0-0-------------|---3-3-3-3-5-5-5-|
E|-----------------|-----------------|-----------------|-----------------|

G|-----------------|-----------------|-----------------|-----------------|
D|-----7-7-7-5-5-5-|-5---------------|-----7-7-7-5-5-5-|-5---------------|
A|-0-0-------------|---3-3-3-3-5-5-5-|-0-0-------------|---3-3-3-3-5-5-5-|
E|-----------------|-----------------|-----------------|-----------------|

G|-----------------|-----------------|-----------------|-----------------|
D|-------7-7-5-5-5-|-5---------------|-----7-7-7-5-5-5-|-5---------------|
A|-0-0-0-----------|---3-3-3-3-5-5-5-|-0-0-------------|---3-3-3-3-5-5-5-|
E|-----------------|-----------------|-----------------|-----------------|

G|-----------------|-----------------|-----------------|-----------------|
D|-------7-7-5-5-5-|-5---------------|-------7-7-5-5-5-|-5---------------|
A|-0-0-0-----------|---3-3-3-3-5-5-5-|-0-0-0-----------|---3-3-3-3-5-5-5-|
E|-----------------|-----------------|-----------------|-----------------|


Break - 2:56:
G|-----------------|-----------------|-----------------|-----------------|
D|-----------------|-----------------|-----------------|-----------------|
A|-0-0-0-0-0-0-0-0-|-0-0-0-0-0-0-0-0-|-0-0-0-0-0-0-0-0-|-0-0-0-0-0-0-0-0-|
E|-----------------|-----------------|-----------------|-----------------|

G|-----------------|-----------------|-----------------|-----------------|
D|-----5-----------|-----9-----------|-------7-7-5---5-|-----------------|
A|-3-3-----3-3-3-3/|-7-7---7---7-7-7-|-0-0-0-----------|-7-7-7-7-7-7-7-7\|
E|-----------------|-----------------|-----------------|-----------------|

G|-----------------|-----------------|-----------------|-----------------|
D|-------5-5-5-----|-----------------|-------7-7-5---5-|-----------------|
A|-3-3-3-------3-3/|-7-7-7-7-7-7-7-7-|-0-0-0-----------|-7-7-7-7-7-7-7-7\|
E|-----------------|-----------------|-----------------|-----------------|

G|-----------------|-----------------|-----------------|-----------------|
D|-----------------|-----------------|-----------------|-----------------|
A|-0-0-0-0-0-0-0-0-|-0-0-0-0-0-0-0-0-|-0-0-0-0-0-0-0-0-|-0-0-0-0-0-0-0-0-|
E|-----------------|-----------------|-----------------|-----------------|


Chorus 3 - 3:36:
G|-----------------|-----------------|-----------------|-----------------|
D|-------7-7-5-5-5-|-5---------------|-----7-7-7-5-5-5-|-5---------------|
A|-0-0-0-----------|---3-3-3-3-5-5-5-|-0-0-------------|---3-3-3-3-5-5-5-|
E|-----------------|-----------------|-----------------|-----------------|

G|-----------------|-----------------|-----------------|-----------------|
D|-----7-7-7-5-5-5-|-5---------------|-----7-7-7-5-5-5-|-5---------------|
A|-0-0-------------|---3-3-3-3-5-5-5-|-0-0-------------|---3-3-3-3-5-5-5-|
E|-----------------|-----------------|-----------------|-----------------|

G|-----------------|-----------------|-----------------|-----------------|
D|-------7-7-5-5-5-|-5---------------|-----7-7-7-5-5-5-|-5---------------|
A|-0-0-0-----------|---3-3-3-3-5-5-5-|-0-0-------------|---3-3-3-3-5-5-5-|
E|-----------------|-----------------|-----------------|-----------------|

G|-----------------|-----------------|-----------------|-----------------|
D|-------7-7-5-5-5-|-5---------------|-------7-7-5-5-5-|-5---------------|
A|-0-0-0-----------|---3-3-3-3-5-5-5-|-0-0-0-----------|---3-3-3-3-5-5-5-|
E|-----------------|-----------------|-----------------|-----------------|


Outro - 4:14:
G|-----------------|---------------------|-----------------|-----------------|
D|-----------------|---------------------|-----------------|-----------------|
A|-3-3-3-3-5-5-5-5/|-7-7-7-7/10-10-10-10\|-3---------------|-----------------|
E|-----------------|---------------------|-----------------|-----------------|


************************************

| / Slide up
| \ Slide down

Almost there ...

Sign in to get your own page with links to favourite songs and more. You are just one click away...

Login with Facebook Login with Google