Log in

One click and you are in

Login with Facebook Login with Google

Why sign up and log in

Guitar Tabs Explorer
Slowdive bass tabs for Sing

Bass tabs

Tuning: Standard (E A D G)

(This song has no discernable chorus/verse structure, so I have divided it into logical parts)

Part 1:

G|----|
D|----|
A|----|
E|-3--|

G|-----------------------------------------------------------------------------------|
D|-----------------------------------------------------------------------------------|
A|-----------------------------------------------------------------------------------|
E|-5--5-5--5---5--8\--5--5-5--5---5--8\--3--3-3--3--3-3--5-5\--1--1-1--1--1-1--3-3\--|

G|-----------------------------------------------------------------------------------|
D|-----------------------------------------------------------------------------------|
A|-----------------------------------------------------------------------------------|
E|-5--5-5--5---5--8\--5--5-5--5---5--8\--3--3-3--3--3-3--5-5\--1--1-1--1--1-1--3-3\--|

G|-----------------------------------------------------------------------------------|
D|-----------------------------------------------------------------------------------|
A|-----------------------------------------------------------------------------------|
E|-5--5-5--5---5--8\--5--5-5--5---5--8\--3--3-3--3--3-3--5-5\--1--1-1--1--1-1--3-3\--|

G|------------------------------------------|
D|------------------------------------------|
A|------------------------------------------|
E|-5--5-5--5---5--8\--3--3-3--3--3-3--1-1\--|

G|-----------------------------------------------------------------------------------|
D|-----------------------------------------------------------------------------------|
A|-----------------------------------------------------------------------------------|
E|-5--5-5--5---5--8\--5--5-5--5---5--8\--3--3-3--3--3-3--5-5\--1--1-1--1--1-1--3-3\--|

Part 2:

G|-----------------------------------------------------------------------------------|
D|-----------------------------------------------------------------------------------|
A|-----------------------------------------------------------------------------------|
E|-5~-----------------5~--------------5--3~-----------------3--1~-----------------1--|

G|-----------------------------------------------------------------------------------|
D|-----------------------------------------------------------------------------------|
A|-----------------------------------------------------------------------------------|
E|-0~-----------------0~--------------0--10~---------------10--10~---------------10--|

G|--------------------------------------------|
D|--------------------------------------------|
A|--------------------------------------------|
E|-0----------------0-0~--------------0--3-3--|

Part 3:

G|-----------------------------------------------------------------------------------|
D|-----------------------------------------------------------------------------------|
A|-----------------------------------------------------------------------------------|
E|-5--5-5--5---5--8\--3--3-3--3--3-3--1-1\--5--5-5--5---5--8\--3--3-3--3--3-3--5-5\--|

G|-----------------------|
D|-----------------------|
A|-----------------------|
E|-3--3-3--3--3-3--1-1\--|

G|-----------------------------------------------------------------------------------|
D|-----------------------------------------------------------------------------------|
A|-----------------------------------------------------------------------------------|
E|-5--5-5--5---5--8\--5--5-5--5---5--8\--3--3-3--3--3-3--5-5\--1--1-1--1--1-1--3-3\--|

G|-----------------------------------------------------------------------------------|
D|-----------------------------------------------------------------------------------|
A|-----------------------------------------------------------------------------------|
E|-5--5-5--5---5--8\--5--5-5--5---5--8\--3--3-3--3--3-3--5-5\--1--1-1--1--1-1--3-3\--|

G|-----------------------------------------------------------------------------------|
D|-----------------------------------------------------------------------------------|
A|-----------------------------------------------------------------------------------|
E|-5--5-5--5---5--8\--3--3-3--3--3-3--5-5\--1--1-1--1--1-1--1---0--0-0--0--0-0--0-0--|

G|-----------------------|
D|-----------------------|
A|-----------------------|
E|-0--0-0--0--0-0--3-3---|

Part 4:

G|-----------------------------------------------------------------------------------|
D|-----------------------------------------------------------------------------------|
A|-----------------------------------------------------------------------------------|
E|-5--5-5--5---5-8-8--5--5-5--5---5-8-8--3--3-3--3--3-3--5-5---3--3-3--3--3-3--5-5---|

G|-----------------------------------------------------------------------------------|
D|-----------------------------------------------------------------------------------|
A|-----------------------------------------------------------------------------------|
E|-1--1-1--1---1-1-1--1--1-1--1---1-1-1--0--0-0--0--0-0--0-0---0--0-0--0--0-0--3-3---|

G|-----------------------------------------------------------------------------------|
D|-----------------------------------------------------------------------------------|
A|-----------------------------------------------------------------------------------|
E|-5--5-5--5---5-8-8--5--5-5--5---5-8-8--3--3-3--3--3-3--5-5---3--3-3--3--3-3--5-5---|

G|-----------------------------------------------------------------------------------|
D|-----------------------------------------------------------------------------------|
A|-----------------------------------------------------------------------------------|
E|-1--1-1--1---1-1-1--1--1-1--1---1-1-1--0--0-0--0--0-0--0-0---0--0-0--0--0-0--3-3---|

G|-----------------------------------------------------------------------------------|
D|-----------------------------------------------------------------------------------|
A|-----------------------------------------------------------------------------------|
E|-5--5-5--5---5-8-8--5--5-5--5---5-8-8--3--3-3--3--3-3--5-5---3--3-3--3--3-3--5-5---|

G|-----------------------------------------------------------------------------------|
D|-----------------------------------------------------------------------------------|
A|-----------------------------------------------------------------------------------|
E|-1--1-1--1---1-1-1--1--1-1--1---1-1-1--0--0-0--0--0-0--0-0---0--0-0--0--0-0--0-0---|

Part 5:

G|--------------------------------------|
D|--------------------------------------|
A|--------------------------------------|
E|-7---7--7--7---7---7--8---10--10---8--|

G|--------------------------------------|
D|--------------------------------------|
A|--------------------------------------|
E|-7---7--7--7---7---7--8---10--10---8--|

G|--------------------------------------|
D|--------------------------------------|
A|--------------------------------------|
E|-7---7--7--7---7---7--8---10--10---8--|

G|--------------------------------------|
D|--------------------------------------|
A|--------------------------------------|
E|-7---7--7--7---7---7--8---10--10---8--|

G|--------------------------------------|
D|--------------------------------------|
A|--------------------------------------|
E|-7---7--7--7---7---7--8---10--10---8--|

G|--------------------------------------|
D|--------------------------------------|
A|--------------------------------------|
E|-7---7--7--7---7---7--8---10--10---8--|

(Fade out)


************************************

| /  Slide up
| \  Slide down
| ~  Vibrato

************************************

Almost there ...

Sign in to get your own page with links to favourite songs and more. You are just one click away...

Login with Facebook Login with Google