Log in

One click and you are in

Login with Facebook Login with Google

Why sign up and log in

Guitar Tabs Explorer
Slowdive bass tabs for Machine gun

Bass tabs with lyrics

Tuning: Standard (E A D G)


Intro: Start at 2 second, simply follow the chord of the guitar, at the end of the bar slide from 10 to 5

G|-----------------------------------------------------------------------------------------|
D|-----------------------------------------------------------------------------------------|
A|-----------------------------------------------------------------------------------------| X2
E|-5-5-5-5-5-5-5-5\12-12-12-12-12-12-12-12-14-14-14-14-14-14-14-14/10-10-10-10-10-10-10-10-|

Verse 1: Start at 0,28 same as the intro

Be careful there is a small change for the second note (it still a E but not at the same place)
G|------------------9-9-9-9-9-9-9-9--------------------------------------------------|
D|-----------------------------------------------------------------------------------|
A|-----------------------------------------------------------------------------------| X1
E|-5-5-5-5-5-5-5-5-------------------14-14-14-14-14-14-14-14/10-10-10-10-10-10-10-10-|

G|-----------------------------------------------------------------------------------------|
D|-----------------------------------------------------------------------------------------|
A|-----------------------------------------------------------------------------------------| X1
E|-5-5-5-5-5-5-5-5\12-12-12-12-12-12-12-12-14-14-14-14-14-14-14-14/10-10-10-10-10-10-10-10-|

G|------------------9-9-9-9-9-9-9-9-----------------------------------------------------|
D|--------------------------------------------------------------------------------------|
A|--------------------------------------------------------------------------------------| X1
E|-5-5-5-5-5-5-5-5-------------------14-14-14-14-14-14-14-14-14/10-10-10-10-10-10-10-10-|

G|-----------------------------------------------------------------------------------------|
D|-----------------------------------------------------------------------------------------|
A|-----------------------------------------------------------------------------------------| X1
E|-5-5-5-5-5-5-5-5\12-12-12-12-12-12-12-12-14-14-14-14-14-14-14-14/10-10-10-10-10-10-10-10-|

G|--------------------------|
D|--------------------------|
A|--------------------------| X1 (last bar of the verse)
E|-10-10-10-10-10-10-10-10--|


Chorus: Start at 1.21 just follow the guitar

G|-------------------------------------------------------------------------|
D|-------------------------------------------------------------------------|
A|-------------------------------------------------------------------------| X1
E|-2-2-2-2-2-2-2-2-2-2-2-2-2-2-2-2-5-5-5-5-5-5-5-5\12-12-12-12-12-12-12-12-|

G|-------------------------------------------------------------------------|
D|-------------------------------------------------------------------------|
A|-------------------------------------------------------------------------| X1
E|-2-2-2-2-2-2-2-2-2-2-2-2-2-2-2-2-5-5-5-5-5-5-5-5\12-12-12-12-12-12-12-12-|


G|-------------------------------------------------|
D|-------------------------------------------------| X1
A|-------------------------------------------------|
E|-2-2-2-2-2-2-2-2-3-3-3-3-3-3-3-3-3-3-3-3-3-3-3-3-|


Verse2: Start at 1:55

Be careful there is a small change for the second note (it still a E but not at the same place).

G|------------------9-9-9-9-9-9-9-9--------------------------------------------------|
D|-----------------------------------------------------------------------------------|
A|-----------------------------------------------------------------------------------| X1
E|-5-5-5-5-5-5-5-5-------------------14-14-14-14-14-14-14-14/10-10-10-10-10-10-10-10-|

G|-----------------------------------------------------------------------------------------|
D|-----------------------------------------------------------------------------------------|
A|-----------------------------------------------------------------------------------------| X1
E|-5-5-5-5-5-5-5-5\12-12-12-12-12-12-12-12-14-14-14-14-14-14-14-14/10-10-10-10-10-10-10-10-|

G|------------------9-9-9-9-9-9-9-9--------------------------------------------------|
D|-----------------------------------------------------------------------------------|
A|-----------------------------------------------------------------------------------| X1
E|-5-5-5-5-5-5-5-5-------------------14-14-14-14-14-14-14-14/10-10-10-10-10-10-10-10-|

G|-----------------------------------------------------------------------------------------|
D|-----------------------------------------------------------------------------------------|
A|-----------------------------------------------------------------------------------------| X1
E|-5-5-5-5-5-5-5-5\12-12-12-12-12-12-12-12-14-14-14-14-14-14-14-14/10-10-10-10-10-10-10-10-|

G|------------------9-9-9-9-9-9-9-9--------------------------------------------------|
D|-----------------------------------------------------------------------------------|
A|-----------------------------------------------------------------------------------| X1
E|-5-5-5-5-5-5-5-5-------------------14-14-14-14-14-14-14-14/10-10-10-10-10-10-10-10-|

G|-----------------------------------------------------------------------------------------|
D|-----------------------------------------------------------------------------------------|
A|-----------------------------------------------------------------------------------------| X1
E|-5-5-5-5-5-5-5-5\12-12-12-12-12-12-12-12-14-14-14-14-14-14-14-14/10-10-10-10-10-10-10-10-|

G|--------------------------|
D|--------------------------|
A|--------------------------| X1 (last bar of the verse)
E|-10-10-10-10-10-10-10-10--|

Choru2: Start at 3.13

G|-------------------------------------------------------------------------|
D|-------------------------------------------------------------------------|
A|-------------------------------------------------------------------------| X1
E|-2-2-2-2-2-2-2-2-2-2-2-2-2-2-2-2-5-5-5-5-5-5-5-5\12-12-12-12-12-12-12-12-|

G|-------------------------------------------------------------------------|
D|-------------------------------------------------------------------------|
A|-------------------------------------------------------------------------| X1
E|-2-2-2-2-2-2-2-2-2-2-2-2-2-2-2-2-5-5-5-5-5-5-5-5\12-12-12-12-12-12-12-12-|


G|-------------------------------------------------|
D|-------------------------------------------------| X1
A|-------------------------------------------------|
E|-2-2-2-2-2-2-2-2-3-3-3-3-3-3-3-3-3-3-3-3-3-3-3-3-|


End: Start at 3.47 let the bass slowly fade the second time

G|------------------9-9-9-9-9-9-9-9--------------------------------------------------|
D|-----------------------------------------------------------------------------------|
A|-----------------------------------------------------------------------------------| X1
E|-5-5-5-5-5-5-5-5-------------------14-14-14-14-14-14-14-14/10-10-10-10-10-10-10-10-|

G|-----------------------------------------------------------------------------------------|
D|-----------------------------------------------------------------------------------------|
A|-----------------------------------------------------------------------------------------| X1
E|-5-5-5-5-5-5-5-5\12-12-12-12-12-12-12-12-14-14-14-14-14-14-14-14/10-10-10-10-10-10-10-10-|


************************************

| /  Slide up
| \  Slide down

************************************

Almost there ...

Sign in to get your own page with links to favourite songs and more. You are just one click away...

Login with Facebook Login with Google