Log in

One click and you are in

Login with Facebook Login with Google

Why sign up and log in

Guitar Tabs Explorer
Slowdive bass tabs for Crazy for you

Bass tabs

INTRO:

G------------------------------------------------------------|
D------------------------------------------------------------|
A------------0--------------0-0-------------------0-0--------|
E--3----0---------3-----0---------0-0---3----0-0---------0-0-|

G--------------------------------------------------------------|
D--------------------------------------------------------------|
A-------------------0-0---------------------------0-0----------|
E--0-3-3----0-0---0-----0-0------0-3-3----0-0---0-----0-0------|

G--------------------------------------------------------------|
D--------------------------------------------------------------|
A-------------------0-0---------------------------0-0----------|
E--0-3-3----0-0---0-----0-0------0-3-3----0-0---0-----0-0------|

LOUD VERSES:

G----------------------------------|
D----------------------------------|
A------------------0-0-0-----------|
E--3-3-3-0-0-0-0-0-------0-0-0-0-0-|

QUIET VERSES:

G-----------------------|
D-----------------------|
A--3--3--3-3--0--0--0-0-|

Almost there ...

Sign in to get your own page with links to favourite songs and more. You are just one click away...

Login with Facebook Login with Google